PrimaNota.ru - самый крупный в мире бесплатный архив песенных текстов, аккордов, табулатур и нот


Smog - Distance - текст песни, таба, видео

Регистрация Запомнить меня
Войти через:  Facebook Google Twitter Vk Yandex Mail.ru

Smog - Distance - текст песни, таба, видео

Печатать
Просмотров: 91
Band: Smog
Songwriter: Bill Callahan
Song: Distance
Album: Dongs of Sevotion

tabbed by D Giglio
send mistakes to davidgiglio@hotmail.com

The first, slower part, goes through these
bits at various times:

e-----------------
b----3------5-----
g--4---4--2---2---
d-----------------
a-----------------
E-----------------

e-----------------
b------2-----2----
g--2h4---2h4------
d-----------------
a-----------------
E-----------------

the second, faster part, has two main guitar
parts.

The first is a basic chord change that runs
through this part of the song. The two chords
are: 

e----------------
b----------------
g--4----2--------
d--4----2--------
a--2----0--------
E----------------

Then you have the lead, which is like this:

e------------------------------
b------------------------------
g---------0-0--------0-0-2-----
d-----0h2-----2--0h2-----------
a--2---------------------------
E------------------------------
     
Добавлено: 27.06.2013
Другие материалы по этой песне:
  • Аккорды и текст

Страница создана 27.06.2013
http://primanota.ru/smog/distance-chords.htm
Привет, Гость.
Предлагаем пройти революционный курс по гитаре.
Подарок от PrimaNota.Ru, забирай!