PrimaNota.ru - самый крупный в мире бесплатный архив песенных текстов, аккордов, табулатур и нот


Smog - Bloodflow - текст песни, таба, видео

Регистрация Запомнить меня
Войти через:  Facebook Google Twitter Vk Yandex Mail.ru

Smog - Bloodflow - текст песни, таба, видео

Печатать
Просмотров: 76
Band: Smog
Songwriter: Bill Callahan
Song: Bloodflow
Album: Dongs of Sevotion


tabbed by D Giglio
send mistakes to davidgiglio@hotmail.com


The little intro/outro guitar noise
stuff, I don't know, it might possibly be

e--------------------
b-----17----17----17-=20
g--14----14----14----
d--------------------
a--------------------
E--------------------

the first part varies between

e-------------------------
b-------------------------
g-------------------------
d--------2-4-2------------
a------4-------4-0--------
E--2-2--------------------

and

e-------------------------
b-------------------------
g-------------------------
d--------2-4-2------------
a------4-------4p0-0------
E--2-2--------------------

and

e-------------------------
b-------------------------
g-------------------------
d--------2-4-2------------
a------4-------4-3-0------
E--2-2--------------------

the part with the chords is something like this

e------------2------------
b------------2------------
g------------2------------
d--4-4-4-2-4-2-4-2--------
a--4-4-4-2-4---4-2--------
E--2-2-2-2-2---2-2--------
     
Добавлено: 08.11.2013
Вам также может быть интересно:
Другие материалы по этой песне:
  • Аккорды и текст

Страница создана 11.10.2013
http://primanota.ru/smog/bloodflow-chords.htm
Привет, Гость.
Предлагаем пройти революционный курс по гитаре.
Подарок от PrimaNota.Ru, забирай!