PrimaNota.ru - самый крупный в мире бесплатный архив песенных текстов, аккордов, табулатур и нот


Smiths - The Hand That Rocks The Cradle - текст песни, таба, бас-таба, видео

Регистрация Запомнить меня
Войти через:  Facebook Google Twitter Vk Yandex Mail.ru

Smiths - The Hand That Rocks The Cradle - текст песни, таба, бас-таба, видео

Печатать
Просмотров: 190
Авторы музыки: Johnny Marr
Авторы текста: Morrissey
The Hand That Rocks the Cradle
                     --------------------------------
                            by Marr/Morrissey

This is a collaboration between I, the writer, and Cypher, the actual
composer. This is what the riff is in raw form. It may fro guitar to guitar
but this is the skeleton of it.

RIFF

E|-----0--------0-----0-----------0--|
B|-----------3--------------3--------|          *REMEMBER THIS IS RAW FORM*
G|--0-----0--------0-----0-----0-----|
D|-----------------------------------|
A|-----------------------------------|
E|-----------------------------------|

2nd part of RIFF

E|-----0--------0-----0-----------2--|
B|-----------3--------------3--------|
G|--0-----0--------0-----0-----0-----|
D|-----------------------------------|
A|-----------------------------------|
E|-----------------------------------|

If you can improve on this please do and mail me a copy. If any one can get
the bass line I could use it as well.
Добавлено: 21.02.2012
Другие материалы по этой песне:

Страница создана 21.02.2012
http://primanota.ru/smiths/the-hand-that-rocks-the-cradle-chords.htm
Привет, Гость.
Предлагаем пройти революционный курс по гитаре.
Подарок от PrimaNota.Ru, забирай!