PrimaNota.ru - самый крупный в мире бесплатный архив песенных текстов, аккордов, табулатур и нот


Smiths - Oscillate Wildly - бас-таба, видео

Регистрация Запомнить меня
Войти через:  Facebook Google Twitter Vk Yandex Mail.ru

Smiths - Oscillate Wildly - бас-таба, видео

Печатать
Просмотров: 36
Авторы музыки: Johnny Marr

-------------------------------------------------------------------------------
                         Oscillate Wildly - The Smiths
-------------------------------------------------------------------------------

Tuning: Standard


Notation:

    / = slide up
    h = hammer-on
    x = mute note


Verse [0:16] x2

    G|-------------------9---9-------7---|------------------------------------|
    D|-----7---7-----------------5-------|-----7---7---------9-------9---10---|
    A|-------------5/7-------------------|-------------5/7-------7------------|
    E|-5---------------------------------|-5----------------------------------|

    G|---------------------------------|---------------------------------|
    D|---------------------------------|---------------------------------|
    A|-8-------------------------------|-8-----------7-------------------|
    E|-------------8-----------5-------|-------------------------8-------|


Pre-chorus [0:33]

    G|---------------------------------|----------------------------------|
    D|-------------------------7-------|-9--------------------------------|
    A|-5-----------8-------------------|-------------10-----------7-------|
    E|---------------------------------|----------------------------------|

    G|----------------------------------|---------------------------------|
    D|-------------7-----------10-------|---------------------------------|
    A|-8--------------------------------|---------------------------------|
    E|----------------------------------|-3---------------4---------------|


Chorus [0:41]

    G|---------------------------------|---------------------------------|
    D|-----7---5-----------------------|-----5---5---0---3-------5-------|
    A|-------------8-------7---5-------|---------------------------------|
    E|-5---------------------------3---|---------------------------------|

    G|---------------------------------|---------------------------------|
    D|-2-------2-----0-2---2-------3---|---------------------------------|
    A|---------------------------------|-----3---0---3-------------------|
    E|---------------------------------|-----------------3-------4-------|

    G|---------------------------------|---------------------------------|
    D|-----7---5-----------------------|-----5---5---0---3-------5-------|
    A|-------------8-------7---5-------|---------------------------------|
    E|-5---------------------------3---|---------------------------------|

    G|---------------------------------|---------------------------------|
    D|-2-------2-----0-2---2---x---2---|---------------0-2---------------|
    A|---------------------------------|---------------------------------|
    E|---------------------------------|---------------------------------|


Bridge [0:57]

    G|---------------------------------|---------------------------------|
    D|-3---------------------------3---|-----------------------------3---|
    A|-------------3---0---3-----------|-------------3---0-------3-------|
    E|---------------------------------|---------------------------------|

    G|---------------------------------|---------------------------------|
    D|-5-----------3-------2---3---5---|-----5-------2---3---2---3-------|
    A|---------------------------------|---------------------------------|
    E|---------------------------------|---------------------------------|

    G|---------------------------------|----------------------------------|
    D|-5---------------3---0---3---5---|-----5---5---5---3h5------6-------|
    A|---------------------------------|----------------------------------|
    E|---------------------------------|----------------------------------|

Verse [1:10] x4

    G|-------------------9---9-------7---|------------------------------------|
    D|-----7---7-----------------5-------|-----7---7---------9-------9---10---|
    A|-------------5/7-------------------|-------------5/7-------7------------|
    E|-5---------------------------------|-5----------------------------------|

    G|---------------------------------|---------------------------------|
    D|---------------------------------|---------------------------------|
    A|-8-------------------------------|-8-----------7-------------------|
    E|-------------8-----------5-------|-------------------------8-------|

Pre-chorus [1:43]

    G|---------------------------------|----------------------------------|
    D|-------------------------7-------|-9--------------------------------|
    A|-5-----------8-------------------|-------------10-----------7-------|
    E|---------------------------------|----------------------------------|

    G|----------------------------------|---------------------------------|
    D|-------------7-----------10-------|---------------------------------|
    A|-8--------------------------------|---------------------------------|
    E|----------------------------------|-3---------------4---------------|

Chorus [1:51]

    G|---------------------------------|---------------------------------|
    D|-----7---5-----------------------|-----5---5---0---3-------5-------|
    A|-------------8-------7---5-------|---------------------------------|
    E|-5---------------------------3---|---------------------------------|

    G|-----------------9---------------|---------------------------------|
    D|-----------------------------3---|---------------------------------|
    A|-7-----------7-----------7-------|-----3---0---3-------------------|
    E|---------------------------------|-----------------3-------4-------|

    G|---------------------------------|---------------------------------|
    D|-----7---5-----------------------|-----5---5---0---3-------5-------|
    A|-------------8-------7---5-------|---------------------------------|
    E|-5---------------------------3---|---------------------------------|

    G|-----------------9---------------|-----------------9----------------|
    D|-------------------------9-------|-------------------------9\-------|
    A|-7-----------7-------------------|-7-----------7--------------------|
    E|---------------------------------|----------------------------------|


Bridge [2:08]

    G|---------------------------------|---------------------------------|
    D|-3-------------------------------|-3-------------------------------|
    A|-------------3---0-------3-------|-------------3---0-------3-------|
    E|---------------------------------|---------------------------------|

    G|---------------------------------|---------------------------------|
    D|---------5---3-------------------|-----5-------2---3---2---3-------|
    A|---------------------5---3-------|---------------------------------|
    E|-3---------------------------3---|---------------------------------|

    G|---------------------------------|---------------------------------|
    D|---------5---3-------2---0-------|-----5-------2---3---2---3-------|
    A|---------------------------------|---------------------------------|
    E|-3---------------------------3---|---------------------------------|

    G|---------------------------------|---------------------------------|
    D|---------5---3-------2---0-------|-----5-------2---3---2---3-------|
    A|---------------------------------|---------------------------------|
    E|-3---------------------------3---|---------------------------------|

    G|---------------------------------|---------------------------------|
    D|---------5---3-------------------|-----5---5-------5-------6-------|
    A|---------------------5---3-------|---------------------------------|
    E|-3---------------------------3---|-------------3-------------------|

Verse [2:28] (repeat until fade)

    G|-------------------9---9-------7---|------------------------------------|
    D|-----7---7-----------------5-------|-----7---7---------9-------9---10---|
    A|-------------5/7-------------------|-------------5/7-------7------------|
    E|-5---------------------------------|-5----------------------------------|

    G|---------------------------------|---------------------------------|
    D|---------------------------------|---------------------------------|
    A|-8-------------------------------|-8-----------7-------------------|
    E|-------------8-----------5-------|-------------------------8-------|


===============================================================================
Добавлено: 08.03.2016
Другие материалы по этой песне:

Страница создана 03.05.2012
http://primanota.ru/smiths/oscillate-wildly-chords.htm
Привет, Гость.
Предлагаем пройти революционный курс по гитаре.
Подарок от PrimaNota.Ru, забирай!