PrimaNota.ru - самый крупный в мире бесплатный архив песенных текстов, аккордов, табулатур и нот


Smiths - Money Changes Everything - аккорды и текст, бас-таба, видео

Регистрация Запомнить меня
Войти через:  Facebook Google Twitter Vk Yandex Mail.ru

Smiths - Money Changes Everything - аккорды и текст, бас-таба, видео

Печатать
Просмотров: 190
Уроки эстрадного вокала в Санкт-Петербурге
Авторы музыки: Johnny Marr
Авторы текста: Morrissey
Money Changes Everything
Smiths
Song: Money Changes Everything 
Band: The Smiths
Single: Bigmouth Strikes Again
Year: 1986
Tabber: beranger80@hotmail.com

Riff A (0:00)
   
e----------10----10--------|----------10----10------|
b-------10----10----12-10--|-------10----10-----10--|
g--9-11--------------------|--9-11------------------|
d--------------------------|------------------------|
a--------------------------|------------------------|
e--------------------------|------------------------|

Chords B (0:21)
Am

Chords C (0:49)
Dm Em F G Am Am
Dm Em F G Am Am

Chords B (1:09)
Am

Chords C (1:28)
Dm Em F G Am Am
Dm Em F G Am Am

Riff A (1:48)
e----------10----10--------|----------10----10------|
b-------10----10----12-10--|-------10----10-----10--|
g--9-11--------------------|--9-11------------------|
d--------------------------|------------------------|
a--------------------------|------------------------|
e--------------------------|------------------------|

Chords B (2:07)
Am

Chords C (2:27)
Dm Em F G Am Am
Dm Em F G Am Am

Chords D (2:47)
F G Am Em F G Am Am 
F G Am Em F G Am Am

Chords E (3:06)
Dm Em F G
Dm Em F G
Dm Em F G

Chords B (3:21)
Am

Chords E (3:40)
Dm Em F G
Dm Em F G
Dm Em F G

Chords B (3:55)
Am
Добавлено: 14.12.2015
Другие материалы по этой песне:
  • Аккорды и текст

Страница создана 07.03.2012
http://primanota.ru/smiths/money-changes-everything-chords.htm
Привет, Гость.
Предлагаем пройти революционный курс по гитаре.
Подарок от PrimaNota.Ru, забирай!