PrimaNota.ru - самый крупный в мире бесплатный архив песенных текстов, аккордов, табулатур и нот


Smiths - Draize Train - таба, видео

Регистрация Запомнить меня
Войти через:  Facebook Google Twitter Vk Yandex Mail.ru

Smiths - Draize Train - таба, видео

Печатать
Просмотров: 173
Уроки эстрадного вокала в Санкт-Петербурге
Авторы музыки: Johnny Marr

-----------------------------------------------------------------------------
                           The Draize Train - Smiths
-----------------------------------------------------------------------------
Tabbed by: David K.
Email: thischarmingman13@gmail.com

Tuning: Standard

I used the Kilburn video (http://www.youtube.com/watch?v=zVTBVjEyND0) for reference.

  (Intro)                                   (Main riff, V= variation)
e|---3---3----.--3-2--0-----3--3--0--3--2--------------------V2--------------|
B|---3---3----.--3-3--0-----3--3--0--3--3-------------V1-----0000------------|
G|-0---0------.--2-2--0-----0--0--0--2--2-------------0000-------------------|
D|-2---2----2-.--0-0--2-----2--2--2--0--0---4-5---4-5------------------------|
A|-3---3----0-.-------2-----3--3--3------------------------------------------|
E|--------------------0------------------------------------------------------|

(Variation 1, 0:30)
e|---------------------------------------------------------------------------|
B|-8-----8-8-8-7------------8---8-8-8-7-8-8-888---8---8-8-8-7----------------|
G|-10^12---------9-7-777---10^12-----------------10^12--------9-7-777--------|
D|---------------------------------------------------------------------------|
A|---------------------------------------------------------------------------|
E|---------------------------------------------------------------------------|
   (Bend, release slowly)          (2 chords, 0:47)            (0:51)
e|----------------------------------33-33-3-3-3--55-55-5-5-5-----------------|
B|----333---------------------------55-55-5-5-5--77-77-7-7-7----------15-----|
G|-2^4----4^2-2-2-2p0---0-----------55-55-5-5-5--77-77-7-7-7----14^16----16^-|
D|--------------------2------------------------------------------------------|
A|---------------------------------------------------------------------------|
E|---------------------------------------------------------------------------|
                                             (1:16, arpeggio)
e|--------------------------------------------12-----------------------------|
B|----------------------------------------------12--12-----------------------|
G|-14-12---11h12p11----11h12---12-----------------12--12---------------------|
D|------------------14------------14-14--------------------------------------|
A|---------------------------------------------------------------------------|
E|---------------------------------------------------------------------------|
(1:35, A chord, strum)          (2:57, repeat)
e|-7-------------------------------3----------3------------------------------|
B|-8----------------------------5----5p3---33--------------------------------|
G|-9-------------------------------------4-----------------------------------|
D|-7-------------------------------------------------------------------------|
A|---------------------------------------------------------------------------|
E|---------------------------------------------------------------------------|
   (strum the chords furiously)
e|-12-/-15-------------------------------------------------------------------|
B|-12-/-15-------------------------------------------------------------------|
G|-12-/-16-------------------------------------------------------------------|
D|---------------------------------------------------------------------------|
A|---------------------------------------------------------------------------|
E|---------------------------------------------------------------------------|

Intro, 0:00
Variation 1, :31
2 Chords, :47
Bend, :51
2 Chords
Main
Arpeggio, 1:16
Bend, 1:22
2 chords
'A' chord, 1:35
Intro, 1:46
2 chords, 2:06
2 chords, 2:14
'A' chord, 2:22
Variation on main riff, 2:37
'A" chord pull off on 7 and 8, B-string
2 chords
2:57 improvisation
2 chords
12th fret slide to 15th
End is the intro again, at 4:04

| ^  bend up
| /  slide up
| \  slide down
| h  hammer-on
| p  pull-off
| ~  vibrato
| +  harmonic
| .  Mute note
=============================================================================
Добавлено: 11.03.2012
Другие материалы по этой песне:
  • Аккорды и текст

Страница создана 11.03.2012
http://primanota.ru/smiths/draize-train-chords.htm
Привет, Гость.
Предлагаем пройти революционный курс по гитаре.
Подарок от PrimaNota.Ru, забирай!