PrimaNota.ru - самый крупный в мире бесплатный архив песенных текстов, аккордов, табулатур и нот


Smithereens - Blood And Roses - аккорды и текст, таба, бас-таба, видео

Регистрация Запомнить меня
Войти через:  Facebook Google Twitter Vk Yandex Mail.ru

Smithereens - Blood And Roses - аккорды и текст, таба, бас-таба, видео

Печатать
Просмотров: 226
Авторы музыки: Pat DiNizio
Авторы текста: Pat DiNizio
Blood And Roses
Smithereens
Subject: TAB: "Blood And Roses" by The Smithereen


"Blood and Roses" by The Smithereens
transcription by Mike C. Zalot


Intro/Verse Pattern (Electric Bass)

|-------------------|-----------------0----|
|-------------0-----|-------------------0--|
|-----2---------2---|-------2-----2--------|
|0---3----3---------|0----3-----3----------|



 Em         G        Em          G    D
|0---0-0----3---3---|0---0-0-----3---------|
|0---0-0----3---3---|0---0-0-----3----3----|
|0---0-0----0---0---|0---0-0-----0----2----|
|2---2-2----0---0---|2---2-2-----0----0----|
|2---2-2------------|2---2-2---------------|
|0---0-0----3---3---|0---0-0-----3---------|

It was long ago, it seems like yesterday
I saw you standing in the rain
Then I heard you say

 C7M       Dsus2     Em
|0---------0--------|0---------------------|
|0---------3--------|0---------------------|
|0---------2--------|0---------------------|
|2---------0--------|2---------------------|
|3------------------|2---------------------|
|-------------------|0---------------------|

I want your love, but your love's too strong
I need your love but I don't belong

 C7M       Dsus2     Asus2
|0---------0--------|0---------------------|
|0---------3--------|0---------------------|
|0---------2--------|2---------------------|
|2---------0--------|2---------------------|
|3------------------|0---------------------|
|-------------------|----------------------|

I close my eyes and I see blood and roses

Flowers in the springtime, October we were wed
Wintertime the roses died,
You turned to me and said . . . .
Добавлено: 31.05.2012
Другие материалы по этой песне:

Страница создана 03.03.2012
http://primanota.ru/smithereens/blood-and-roses-chords.htm
Привет, Гость.
Предлагаем пройти революционный курс по гитаре.
Подарок от PrimaNota.Ru, забирай!