PrimaNota.ru - самый крупный в мире бесплатный архив песенных текстов, аккордов, табулатур и нот


Smiley - Adrift - таба, видео

Регистрация Запомнить меня
Войти через:  Facebook Google Twitter Vk Yandex Mail.ru

Smiley - Adrift - таба, видео

Печатать
Просмотров: 42
Intro:

|--0--------2--------3--------5--------|--3--------3--------3--------3--------|
|-----0--------0--------0--------0-----|-----3--------3--------3--------3-----|
|--------0--------0--------0--------0--|--------0--------0--------0--------0--|
|--------------------------------------|--------------------------------------|
|--------------------------------------|--3--------3--------3--------3--------|
|--0--------2--------3--------5--------|--------------------------------------|

--0--------0--------0--------0--------|
-----3--------3--------3--------3-----|
--------0--------0--------0--------0--|
--------------------------------------|
--3--------3--------3--------3--------|
--------------------------------------|



Verse 1:

|--0--------2--------3--------5--------|--3--------3--------3--------3--------|
|-----0--------0--------0--------0-----|-----3--------3--------3--------3-----|
|--------0--------0--------0--------0--|--------0--------0--------0--------0--|
|--------------------------------------|--------------------------------------|
|--------------------------------------|--3--------3--------3--------3--------|
|--0--------2--------3--------5--------|--------------------------------------|
   I would  rather   be      adrift with  you                        on    a

--0--------0--------0--------0--------|--3--------0--------0--------0--------|
-----3--------3--------3--------3-----|-----1--------1--------1--------1-----|
--------2--------2--------2--------2--|--------2--------2--------2--------2--|
--0--------0--------0--------0--------|--------------------------------------|
--------------------------------------|--0--------0--------0--------0--------|
--------------------------------------|--------------------------------------|
  distant           ocean          out - side this world                  I'd

--0--------2--------3--------5--------|--3--------3--------3--------3--------|
-----0--------0--------0--------0-----|-----3--------3--------3--------3-----|
--------0--------0--------0--------0--|--------0--------0--------0--------0--|
--------------------------------------|--------------------------------------|
--------------------------------------|--3--------3--------3--------3--------|
--0--------2--------3--------5--------|--------------------------------------|
  rather   be       floating    in a     dream sea               with ima-

--0--------0--------0--------0--------|--3--------3--------3--------3--------|
-----3--------3--------3--------3-----|-----3--------3--------3--------3-----|
--------2--------2--------2--------2--|--------0--------0--------0--------0--|
--0--------0--------0--------0--------|--------------------------------------|
--------------------------------------|--------------------------------------|
--------------------------------------|--3--------3--------3--------3--------|
  ges of you        beaming     in the   ripples


Chorus:

|--2--------2--------2--------2--------|--2--------2--------2--------2--------|
|-----3--------3--------3--------3-----|-----3--------3--------3--------3-----|
|--------2--------2--------2--------2--|--------3--------3--------3--------3--|
|--0--------0--------0--------0--------|--4--------4--------4--------4--------|
|--------------------------------------|--------------------------------------|
|--------------------------------------|--------------------------------------|
            All you can hear     is the   roaring                       and the

--2--------2--------2--------2--------|--5--------5--------5--------5--------|
-----3--------3--------3--------3-----|-----5--------5--------5--------5-----|
--------4--------4--------4--------4--|--------5--------5--------5--------5--|
--------------------------------------|--------------------------------------|
--2--------2--------2--------2--------|--5--------5--------5--------5--------|
--------------------------------------|--------------------------------------|
  tide           is ve-      ry          near                    to take us a-

--3--------3--------3--------3--------|--0-(let ring)-|
-----3--------3--------3--------3-----|---------------|
--------0--------0--------0--------0--|---------------|
--------------------------------------|---------------|
--------------------------------------|---------------|
--3--------3--------3--------3--------|--0------------|
  way                     to pull us a-  way -ay -ay -ay


(play intro again)


Verse 2:

|--0--------2--------3--------5--------|--3--------3--------3--------3--------|
|-----0--------0--------0--------0-----|-----3--------3--------3--------3-----|
|--------0--------0--------0--------0--|--------0--------0--------0--------0--|
|--------------------------------------|--------------------------------------|
|--------------------------------------|--3--------3--------3--------3--------|
|--0--------2--------3--------5--------|--------------------------------------|
   we'll set sail for a lonely island
--0--------0--------0--------0--------|--0--------0--------0--------0--------|
-----3--------3--------3--------3-----|-----1--------1--------1--------1-----|
--------2--------2--------2--------2--|--------2--------2--------2--------2--|
--0--------0--------0--------0--------|--------------------------------------|
--------------------------------------|--0--------0--------0--------0--------|
--------------------------------------|--------------------------------------|
  away from the points of men

--0--------2--------3--------5--------|--3--------3--------3--------3--------|
-----0--------0--------0--------0-----|-----3--------3--------3--------3-----|
--------0--------0--------0--------0--|--------0--------0--------0--------0--|
--------------------------------------|--------------------------------------|
--------------------------------------|--3--------3--------3--------3--------|
--0--------2--------3--------5--------|--------------------------------------|
  stay as long as you would like to stay

--0--------0--------0--------0--------|--3--------3--------3--------3--------|
-----3--------3--------3--------3-----|-----3--------3--------3--------3-----|
--------2--------2--------2--------2--|--------0--------0--------0--------0--|
--0--------0--------0--------0--------|--------------------------------------|
--------------------------------------|--------------------------------------|
--------------------------------------|--3--------3--------3--------3--------|
  I'll be content with every moment


Chorus (2nd time):

|--2--------2--------2--------2--------|--2--------2--------2--------2--------|
|-----3--------3--------3--------3-----|-----3--------3--------3--------3-----|
|--------2--------2--------2--------2--|--------3--------3--------3--------3--|
|--0--------0--------0--------0--------|--4--------4--------4--------4--------|
|--------------------------------------|--------------------------------------|
|--------------------------------------|--------------------------------------|
            All you can see      is the   skyline           purples, pinks and            

--2--------2--------2--------2--------|--5--------5--------5--------5--------|
-----3--------3--------3--------3-----|-----5--------5--------5--------5-----|
--------4--------4--------4--------4--|--------5--------5--------5--------5--|
--------------------------------------|--------------------------------------|
--2--------2--------2--------2--------|--5--------5--------5--------5--------|
--------------------------------------|--------------------------------------|
  oranges           of a setting         sun            and we are

--3--------3--------3--------3--------|--0--------0--------0--------0--------|
-----3--------3--------3--------3-----|-----0--------0--------0--------0-----|
--------0--------0--------0--------0--|--------0--------0--------0--------0--|
--------------------------------------|--------------------------------------|
--------------------------------------|--------------------------------------|
--3--------3--------3--------3--------|--0--------0--------0--------0--------|
  one                                                      adrift we'll

--3--------3--------3--------3--------|--0--------0--------0--------0--------|
-----3--------3--------3--------3-----|-----2--------2--------2--------2-----|
--------0--------0--------0--------0--|--------2--------2--------2--------2--|
--------------------------------------|--------------------------------------|
--------------------------------------|--0--------0--------0--------0--------|
--3--------3--------3--------3--------|--------------------------------------|
  feel

--2--------2--------2--------2--------|--2--------2--------2--------2--------|
-----3--------3--------3--------3-----|-----3--------3--------3--------3-----|
--------2--------2--------2--------2--|--------3--------3--------3--------3--|
--0--------0--------0--------0--------|--4--------4--------4--------4--------|
--------------------------------------|--------------------------------------|
--------------------------------------|--------------------------------------|
                                                                    la da da

--2--------2--------2--------2--------|--5--------5--------5->7--5-----------|
-----3--------3--------3--------3-----|-----5--------5-----------------5-----|
--------4--------4--------4--------4--|--------5--------5-----------------5--|
--------------------------------------|--------------------------------------|
--2--------2--------2--------2--------|--5--------5--------5-----5-----------|
--------------------------------------|--------------------------------------|
  daaaaaaaaa     da daaaaaaa da da da    daaaa

--3--------3--------3--------3--------|-----------0--2--0--------------------|
-----3--------3--------3--------3-----|--------0-----------3--0--------------|
--------0--------0--------0--------0--|-----0--------------------0-----------|
--------------------------------------|--------------------------------------|
--------------------------------------|--------------------------------------|
--3--------3--------3--------3--------|--0--------------------------0--------|

Добавлено: 06.12.2015
Другие материалы по этой песне:
  • Аккорды и текст

Страница создана 06.12.2015
http://primanota.ru/smiley/adrift-chords.htm
Привет, Гость.
Предлагаем пройти революционный курс по гитаре.
Подарок от PrimaNota.Ru, забирай!