PrimaNota.ru - самый крупный в мире бесплатный архив песенных текстов, аккордов, табулатур и нот


Smile Empty Soul - Possession - таба, видео

Регистрация Запомнить меня
Войти через:  Facebook Google Twitter Vk Yandex Mail.ru

Smile Empty Soul - Possession - таба, видео

Печатать
Просмотров: 95
Artist: Smile Empty Soul
Song: Possession (Sarah McLachlan cover)
Album: B-Sides
Tuning: Drop Db

Intro/Verse
|---------------------------------|
|---------------------------------|
|-4-------2-----------------------|
|-4-------2-------2---------------|
|-2-------0-------2---------------|
|-----------------2---------------|

will I spend forever here...
|---------------------------------|
|---------------------------------|
|---------------------------------|
|-5-------7-------2---------------|
|-5-------7-------2---------------|
|-5-------7-------2---------------|

Chorus
|----------|
|----------|
|----------|
|-5/-------|
|-5/-------|
|-5/-------|

|-----------------------------------------------------------------|
|-----------------------------------------------------------------|
|-4---------------------------------------4-----------------------|
|-4-------0-------2-------5---4---5-------4-------0-------2---5---|
|-2-------0-------2-------5---4---5-------2-------0-------2---5---|
|---------0-------2-------5---4---5---------------0-------2---5---|

Solo - Help? Please?
Добавлено: 23.07.2015
Вам также может быть интересно:
Другие материалы по этой песне:
  • Аккорды и текст

Страница создана 23.07.2015
http://primanota.ru/smile-empty-soul/possession-chords.htm
Привет, Гость.
Предлагаем пройти революционный курс по гитаре.
Подарок от PrimaNota.Ru, забирай!