PrimaNota.ru - самый крупный в мире бесплатный архив песенных текстов, аккордов, табулатур и нот


Smile Empty Soul - Here's To Another - текст песни, таба, видео

Регистрация Запомнить меня
Войти через:  Facebook Google Twitter Vk Yandex Mail.ru

Smile Empty Soul - Here's To Another - текст песни, таба, видео

Печатать
Просмотров: 244
Уроки эстрадного вокала в Санкт-Петербурге
i didnt see too many tabs of ses's new album vultures so i thought i would add this one, 
the best song on the cd, its going to be the next single

tuning is c# g# c# f# a# d /

intro/verse

gtr 1
|------------------------------------------------|
|------------------------------------------------|
|-----0---0----0----0----0---0---0---0-----------|
|----0-0-0-0--0-0--0-0--0-0-0-0-0-0-0-0----------|3x Clean
|---7---9--------------7---9---------------------|
|-----------10---10------------5---0-------------|

"i walked into a bar tonite..."


gtr 2
|---------------------|
|--13p12--12h13p12----|
|-------12--------12--|
|---------------------|
|---------------------|
|---------------------|

"im like a fly to the neon lights"


prechorus

|--------------------------------------|
|--------------------------------------|
|--------------------------------------|
|--2-/-5-/-10-/-12---2-/-5-/-7-/-10-0--|
|--2-/-5-/-10-/-12---2-/-5-/-7-/-10-0--|
|--2-/-5-/-10-/-12---2-/-5-/-7-/-10-0--|
........................................

"pull up a stool..."

chorus

|--------------------------------------------------------|
|--------------------------------------------------------|
|--------------------------------------------------------|
|--10--0--2--7--10--0--2--5/7--10--0--7-7/9--10--0--2----|
|--10--0--2--7--10--0--2--5/7--10--0--7-7/9--10--0--2----|
|--10--0--2--7--10--0--2--5/7--10--0--7-7/9--10--0--2----|


"standing on the edge of what is real..."

gtr 1
|------------------------------------------------|
|------------------------------------------------|
|-----0---0----0----0----0---0---0---0-----------|
|----0-0-0-0--0-0--0-0--0-0-0-0-0-0-0-0----------|3x Clean
|---7---9--------------7---9---------------------|
|-----------10---10------------5---0-------------|


gtr 2
|---------------------|
|--13p12--12h13p12----|
|-------12--------12--|
|---------------------|
|---------------------|
|---------------------|
"life is never a short fight"

prechorus

|--------------------------------------|
|--------------------------------------|
|--------------------------------------|
|--2-/-5-/-10-/-12---2-/-5-/-7-/-10-0--|
|--2-/-5-/-10-/-12---2-/-5-/-7-/-10-0--|
|--2-/-5-/-10-/-12---2-/-5-/-7-/-10-0--|
........................................

"pull up a stool..."

 2nd chorus

|--------------------------------------------------------|
|--------------------------------------------------------|
|--------------------------------------------------------|
|--10--0--2--7--10--0--2--5/7--10--0--7-7/9--10--0-------|
|--10--0--2--7--10--0--2--5/7--10--0--7-7/9--10--0-------|
|--10--0--2--7--10--0--2--5/7--10--0--7-7/9--10--0-------|


"standing on the edge of wat is real..."

bridge

|----------------------------|
|----------------------------|
|----------------------------|
|-------------------7-/-10-0-|2x
|--7777555533332222-7-/-10-0-|
|-------------------7-/-10-0-|

"before im gone lets have a cheers"


gtr 1
|------------------------------------------------|
|------------------------------------------------|
|-----0---0----0----0----0---0---0---0-----------|
|----0-0-0-0--0-0--0-0--0-0-0-0-0-0-0-0----------|1x Clean
|---7---9--------------7---9---------------------|
|-----------10---10------------5---0-------------|

3rd chorus
|--------------------------------------------------------|
|--------------------------------------------------------|
|--------------------------------------------------------|
|--10--0--2--7--10--0--2--5/7--10--0--7-7/9--10--0--2----|
|--10--0--2--7--10--0--2--5/7--10--0--7-7/9--10--0--2----|
|--10--0--2--7--10--0--2--5/7--10--0--7-7/9--10--0--2----|


|----------------------------|
|----------------------------|
|----------------------------|
|-------------------7-/-10-0-|4x
|--7777555533332222-7-/-10-0-|
|-------------------7-/-10-0-|


end on
|---|
|---|
|---|
|-2-|
|-2-||-2-|

i think this is pretty damn close...email me at nowherekid309@cs.com

my bands myspace www.myspace.com/anxietytheband
Добавлено: 10.07.2013
Другие материалы по этой песне:
  • Аккорды и текст

Страница создана 27.06.2012
http://primanota.ru/smile-empty-soul/heres-to-another-chords.htm
Привет, Гость.
Предлагаем пройти революционный курс по гитаре.
Подарок от PrimaNota.Ru, забирай!