PrimaNota.ru - самый крупный в мире бесплатный архив песенных текстов, аккордов, табулатур и нот


Smells Like Tuna - Toms Not Drinkin - аккорды и текст, видео

Регистрация Запомнить меня
Войти через:  Facebook Google Twitter Vk Yandex Mail.ru

Smells Like Tuna - Toms Not Drinkin - аккорды и текст, видео

Печатать
Просмотров: 74
Toms Not Drinkin
Smells Like Tuna
------------------------------------------
song: toms not drinkin
album: untitled
band: smells like tuna
lyrics: agase, tortorice
music:agase, boatright, tortorice
-------------------------------------------
this song doesn't have a whole lot of parts, but here they are.
as usual, listen to the recording for tempo, etc.

main part:
e--10-1010----3--|
 --10-1010----3--|
 --10-1010----3--|etc..
 ---9--9-9----2--|(same through verses)
 --10-1010----3--|
E----------------|

bridge:
e---x-----x-----x------x---------
 ---x--5--x--7--x--88--x--7^8^7--
 ---x--5--x--7--x--88--x--7^8^7--
 ---x--5--x--7--x--88--x--7^8^7--
 ---x--0--x--0--x--00--x--0^0^0--
E---x--5--x--7--x--88--x--7^8^7--

e---x-----x-----x-----|
 ---x--5--x--7--x--88-|
 ---x--5--x--7--x--88-|. repeat 4 times
 ---x--5--x--7--x--88-|.
 ---x--0--x--0--x--00-|
E---x--5--x--7--x--88-|

back to main part again
go through verse again and the on 4th time of bridge:

both jewish...
e----------------101010101010/121212121212-|
 ----------------101010101010/121212121212-|
 ----------------101010101010/121212121212-|
 -----------------9-9-9-9-9-9/111111111111-|
 ----------------101010101010/121212121212-|
E------------------------------------------|

back to main part...

------------------------------------------------------
for lyrics, etc. visit http://www.smells-like-tuna.com
------------------------------------------------------
     
Добавлено: 22.06.2013
Вам также может быть интересно:
Другие материалы по этой песне:
  • Аккорды и текст

Страница создана 22.06.2013
http://primanota.ru/smells-like-tuna/toms-not-drinkin-chords.htm
Привет, Гость.
Предлагаем пройти революционный курс по гитаре.
Подарок от PrimaNota.Ru, забирай!