PrimaNota.ru - самый крупный в мире бесплатный архив песенных текстов, аккордов, табулатур и нот


Smells Like Tuna - Peachfuzz - таба, видео

Регистрация Запомнить меня
Войти через:  Facebook Google Twitter Vk Yandex Mail.ru

Smells Like Tuna - Peachfuzz - таба, видео

Печатать
Просмотров: 159
----------------------------------
song: peachfuzz
album: who beefed?
band: smells like tuna
lyrics: agase
music: agase, boatright, tortorice
-----------------------------------
here are the three basic sections. this is another easy chord progession 
and fairly simple song.
listen to the song to get the tempo.

intro:
                                       1,2,3    4
e--2----3^2----|-222-3^22--222-3^22--222-3^22-|----5---|-22-3-2---|
 --3------3-3--|-333----3--333----3--333----3-|----6---|-33-3-3---|
 --2------2---2|-222----2--222----2--222----2-|----5--.|-22-2-2---|
 --------------|------------------------------|-------.|----------|
 --------------|------------------------------|--------|----------|
E--------------|------------------------------|--------|----------|

then kicks into this->         
main part:

e--22-3^2-2-----3------33-3-3--33---|
 --33-----3--33-3------33-3-3--33---|
 --22-----2-----0-------------------|
 ------------22---0-------2---------|
 ------------33---0-0--22-3-2--22---|
E----------------------33---3--33---|

repeats main part through out verse, then in buildup goes to:

a free willed........
e---------------5^00------8------------|
 --11--3^11/-33------3/-6-6--3-35^33---|
 --------------------------------------|. repeat 4 times
 --22----22/-44------5/-7-7--4-4--44---|.
 --33----33/-55------6/-8-8--5-5--55---|
E--------------------------------------|

           "peachfuzz"
e-------------121212-------------------------------|
 -10-101010----------10---1010---8-8--5--55-/--8---|
 --------------------------------------------------|. repeat twice
 -11-111111---------------1111---9-9--6--66-/--9---|.
 -12-121212---------------1212--1010--7--77-/-10---|
E--------------------------------------------------|

then goes back to another verse doing the main part and then 
buildup->peachfuzz, etc.
so basically only 3 parts mainly consisting of the D-C-G pattern.
     
Добавлено: 26.08.2013
Другие материалы по этой песне:
  • Аккорды и текст

Страница создана 20.08.2013
http://primanota.ru/smells-like-tuna/peachfuzz-chords.htm
Привет, Гость.
Предлагаем пройти революционный курс по гитаре.
Подарок от PrimaNota.Ru, забирай!