PrimaNota.ru - самый крупный в мире бесплатный архив песенных текстов, аккордов, табулатур и нот


Smells Like Tuna - Funky Spud Lovin - аккорды и текст, видео

Регистрация Запомнить меня
Войти через:  Facebook Google Twitter Vk Yandex Mail.ru

Smells Like Tuna - Funky Spud Lovin - аккорды и текст, видео

Печатать
Просмотров: 95
Уроки эстрадного вокала в Санкт-Петербурге
Funky Spud Lovin
Smells Like Tuna
========================
song:  funky spud lovin'
album: who beefed?
band:  smells like tuna
lyrics: tortorice
music: agase, tortorice, boatright
========================
  
this is a very basic song consisting of 3 chords. listen to recording to get rhythm down for main part.


main part:
   
   G      F       C      G
e--33--3--------------3--3--3^0---------\
 ------3----------11--3---------3^0-----\
 -----------------22----------------2^0-\.
 ---------3--333------------------------\. (repeat)
 --33-----3--333--33-----3--------------\
E--22-----1--111---------2--------------\

chorus:

   G     F      C     G
e--333----------------3-3333------------\
 ---------------111---------------------\
 ---------------222---------------------\.
 --------3-333--------------------------\. (repeat)
 --333---3-333--333---3-3333------------\
E--222---1-111--------2-2222------------\



verse

G                F
i like em mashed w...
C                G
especially when they....



chorus:
GF         C                  G
i, want to feel your potatoes x3

G                         F
you can ...
C                        G
skin em', shoot em far!

verse

chorus

verse 

chorus
     
Добавлено: 28.07.2013
Другие материалы по этой песне:
  • Аккорды и текст

Страница создана 28.07.2013
http://primanota.ru/smells-like-tuna/funky-spud-lovin-chords.htm
Привет, Гость.
Предлагаем пройти революционный курс по гитаре.
Подарок от PrimaNota.Ru, забирай!