PrimaNota.ru - самый крупный в мире бесплатный архив песенных текстов, аккордов, табулатур и нот


Smashing Pumpkins - West Coast - аккорды и текст, видео

Регистрация Запомнить меня
Войти через:  Facebook Google Twitter Vk Yandex Mail.ru

Smashing Pumpkins - West Coast - аккорды и текст, видео

Печатать
Просмотров: 200
West Coast
Smashing Pumpkins
Smashing Pumpkins - West Coast (Well actually BC feat Spirits in the Sky) 

This song is so beautiful and I'm sure it will be included in the epic 
concept album "Teargarden by Kaleidyscope". I can't wait!
Download songs from the album for free at www.smashingpumpkins.com

Here's an awesome clip of the song... www.youtube.com/watch?v=Jl-4l3bW88M

~~~~~~~~~~~~~~~~~~~~~~~~~~~~~~~~~~~~~~~~~~~~~~~~~~~~~~~~~~~~~~~~~~~~~~~~~
Tuning: Standard EADGBE (Capo on 7th Fret)
~~~~~~~~~~~~~~~~~~~~~~~~~~~~~~~~~~~~~~~~~~~~~~~~~~~~~~~~~~~~~~~~~~~~~~~~~

Now this tab and lyrics is probably not quite correct but it sounds 
right to me. Enjoy!

Intro & Chorus (La la la la...)

   G6 Asus2  C  C7M    C7 Asus2  Em
E--0----0----0----0----0----0----0--|
B--0----0----1----0----1----0----0--|    
G--0----2----0----0----3----2----0--|     Keep strumming Em until
D--0----2----2----2----2----2----2--|     you get to the verse.
A--2----0----3----3----3----0----2--|     
E--3----0----0----0----x----0----0--| x2  


Verses: (Happy Monday's...)
            
   Em    G6  Asus2 Asus2 Asus2   G6    Em
E--0-----0-----0-----0-----0-----0-----0--|
B--0-----0-----0-----0-----0-----0-----0--|    
G--0-----0-----2-----2-----2-----0-----0--|   Tip: When playing Asus2,
D--2-----0-----2-----2-----2-----0-----2--|   hammer on the D string. 
A--2-----2-----0-----0-----0-----2-----2--| 
E--0-----3-----0-----0-----0-----3-----0--|                        


Bridge: (I'll let you in...)

   C    G6   Em  G13   C    G6   Em   C   G+6   Em  G13   C   G+6   Em
E--0----0----0----0----0----0----0----0----0----0----0----0----0----0--|
B--1----0----0----3----1----0----0----1----0----0----3----1----0----0--|
G--0----0----0----0----0----0----0----0----0----0----0----0----0----0--|
D--2----0----2----0----2----0----2----2----1----2----0----2----1----2--|
A--3----2----2----2----3----2----2----3----2----2----2----3----2----2--|
E--0----3----0----2----0----3----0----0----3----0----2----0----3----0--|

~~~~~~~~~~~~~~~~~~~~~~~~~~~~~~~~~~~~~~~~~~~~~~~~~~~~~~~~~~~~~~~~~~~~~~~~~

Lyrics....

Happy Monday's, a little Sunday's surround you
I am wheezy, for I am freezing beside you

La la la la la la la la la
La la la la la la la la la

A little wet dream, a little moonbeam surrounds you
For I am suspect, as the reject beside you

La la la la la la la la la
La la la la la la la la la

I'll let you in, to find a place, you begin
I'll let you drive til' my days
I'll find a way, to make you pay our dues
Of the fellowship of man

A little sickness, a little quickness inside of you
For I am burnt toast, as this West Coast devours you

La la la la la la la la la
La la la la la la la la la

La la la la la la la la la
La la la la la la la la la

~~~~~~~~~~~~~~~~~~~~~~~~~~~~~~~~~~~~~~~~~~~~~~~~~~~~~~~~~~~~~~~~~~~~~~~~~

Any comments or corrections please email me....
wombat77@ihug.co.nz  Thanks!
Добавлено: 12.03.2012
Другие материалы по этой песне:
  • Аккорды и текст

Страница создана 12.03.2012
http://primanota.ru/smashing-pumpkins/west-coast-chords.htm
Привет, Гость.
Предлагаем пройти революционный курс по гитаре.
Подарок от PrimaNota.Ru, забирай!