PrimaNota.ru - самый крупный в мире бесплатный архив песенных текстов, аккордов, табулатур и нот


Smashing Pumpkins - Ugly Demo - таба, видео

Регистрация Запомнить меня
Войти через:  Facebook Google Twitter Vk Yandex Mail.ru

Smashing Pumpkins - Ugly Demo - таба, видео

Печатать
Просмотров: 123
Tabbed by Brian (Ansigod) McCall 

UGLY - by Smashing Pumpkins from teh Mellon Collie demos
====   written by William P. Corgan Jr.

*1

|----0----------------------------0------------------------
|----0------3---------3-----------0------3---------3-------
|----0------0-0-----0----0---0----0------0-0-----0----0---0
|-2--2--------0---2--------0---2--2--------0---2--------0--
|-2--2----2-----3--------------2--2--2-2-----3-------------
|-0--0--3----------------------0--0--3---------------------

|----0----------------------------0------------------------
|----0------3---------3-----------0------3---------3-------
|----0------0-0-----0----0---0----0------0-0-----0----0---0
|-2--2--------0---2--------0---2--2--------0---2--------0--
|-2--2----2-----3--------------2--2--2-2-----3-------------
|-0--0--3----------------------0--0--3---------------------

|-----0-----------3---3-3------------------------------------
|-----0-----------3-3-3-3-3---3-3-3-3-3-----3-----3-3--------
|-----0-0-0-0-0---0-0-0-0-0---0-0-0-0-0-2---2-2-2-2-2--------
|-2---2-2-2-2-0---0-0-0-0-2-2-2-2-2-2-2-2-2-2-2-2-2-2--------
|-2-2-2-2-2-2-2-2-2-2-2-2-3-3-3-3-3-3-3-0-0-0-0-0-0-0--------
|-0-0-0-0---0-3-3-3-3-3-3------------------------------------

|--------------------------------------------------------
|---------------------3-----3----------------------------
|-----0-------0------------------------------------------
|-------------------2-----2---2--------------------------
|---2---2---2-----3-----0--------------------------------
|-0-------3-----3----------------------------------------
^repeat with
a few extra
strings thrown
in...

*2 ("I'm good enought but I don't care..."

|-----0---------------0------------------------------------
|-3---3---3-3-3-3-0---0------------------------------------
|-2---2-2-2-0-0-0-0---0------------------------------------
|-0-0-0-0-0-2-2-2-2-2-2------------------------------------
|-0-0-0-0-0-3-3-3-2-2-2------------------------------------
|-----------------0-0-0------------------------------------
^repeat

Repeat *1
Добавлено: 26.03.2012
Другие материалы по этой песне:
  • Аккорды и текст

Страница создана 26.03.2012
http://primanota.ru/smashing-pumpkins/ugly-demo-chords.htm
Привет, Гость.
Предлагаем пройти революционный курс по гитаре.
Подарок от PrimaNota.Ru, забирай!