PrimaNota.ru - самый крупный в мире бесплатный архив песенных текстов, аккордов, табулатур и нот


Smashing Pumpkins - Tonight Reprise - аккорды и текст, таба, видео

Регистрация Запомнить меня
Войти через:  Facebook Google Twitter Vk Yandex Mail.ru

Smashing Pumpkins - Tonight Reprise - аккорды и текст, таба, видео

Печатать
Просмотров: 176
Tonight Reprise
Smashing Pumpkins
		   Tonite (reprise)
Smashing Pumpkins
from the Tonight, Tonight single

tabbed by Tyler Wyse

(verse riff repeated over and over)
And the embers never fade, in my city by the lake,
The place, where, I was born,
As the windup toys wind down,
Muffling the sound, of a life hidden underground,
Believe, Believe in me, Believe, Believe

(riff 1)

(G)                  (E)                           (Riff 1)
That you can change, that you're not stuck in vain,
(G)                 (E)
We're not the same, we're different,
(G)      (Riff 2)  (Riff 2)  (Riff 2)  (Riff 2)
Tonight, Tonight,            Tonight   Tonight,
(G)           (D)           (Riff 3)
We'll crucify the insincere Tonight, Tonight,
(G)               (D)      (Riff 3)
The impossible is possible Tonight, Tonight
                            (E slow strum)
Believe in me like I believe in you,
(verse repeated several times)     (G s.s) (D s.s.) (C s.s)
Tonight, Tonight, Tonight, Tonight

verse riff
---------------------------------------------------------------
---------------------------------------------------------------
---0-----0-----0---0-----0-----0-------------------------------
-----0-----0---------0-----0-----------------------------------
-4-----4-----4---3-----3-----3---------------------------------
---------------------------------------------------------------

Riff 1
-----2-2-----2-2-----------------------------------------------
-----0-0-----3-3---1-------------------------------------------
-----0-0-----2-2-----0-------0---------------------------------
-----0-0-----0-0-------2---2-----------------------------------
-2-2-2-2-0-0-----3-------3-------------------------------------
-3-3-3-3-0-0-----0---------------------------------------------

Riff 2
-2---2-2-2---2-2-0---0-0---------------------------------------
-0---0-0-3---3-3-1---1-1---------------------------------------
-0---0-0-2---2-2-0---0-0---------------------------------------
-0---0-0-0---0-0-2---2-2---------------------------------------
-2---2-----------3---3-3---------------------------------------
-3---3---------------------------------------------------------
 D   D U D   D U D   D U

Riff 3
-----2-2-----2-2-----------------------------------------------
-----0-0-----3-3---1-------------------------------------------
-----0-0-----2-2---0-0-----------------------------------------
-----0-0-----0-0---2-2-----------------------------------------
-2-2-2-2-0-0-----3---3-----------------------------------------
-3-3-3-3-0-0-----0---------------------------------------------


-----



Tonight, Reprise
By Smashing Pumkins


Acustic version from the single Tonight, Tonight.
First: tune down a half step.

Intro:

----------------------------------------------------------------------------------------------------------------------------------------0-------------0-------------------0-------------0--------------------------------------------------------------0-------
----0---------------0----------------0-----------------------------------------------------------------------------0---------------------------0----------------------------------------------------------------------------------3----------3-------3-------5-
---------5-------------5---------------------------------------------------------------------------------------------------------------------------------------------------------------------------------

               Repeat this until



Tonight     Tonight
      c      g        em                 c

Tonight      Tonight
      c       g       em              c


At last the intro again.



It isent complete but the rest is easy to take out.


Tonite (Reprise)
from the Tonight, Tonight single
You know who wrote it and how to tune your guitar
tabbed by Tyler Wyse

(verse parts 1+2 repeated several times; listen to the CD)
And the embers never fade,
In my city by the lake,
The place, where, I was born,
As the wind-up toys wind down,
Muffling the sound,
Of a life hidden underground,
Believe, believe in me, believe, believe,

G      D  Em(arp.)       Am
                          That you can change,
C
That you're not stuck in vain
G      D  Em             Am                 OPEN
                          We're not the same we're
C
Different
C9     G     D
Tonight           ah-
night
Tonight
G      D  Em       Am                     C
Tonight             We'll   crucify  the   insincere
Tonight, Tonight    We'll make things right we'll feel it all
Tonight, Tonight    The   impossible  is   possible    To-
G      D  Em         (pause)      C9
night
(verse part 1)
Tonight, tonight, tonight, tonight
$G    $D    $Em


verse part 1
------------------------------------------
---0-----0-----0-----0-----0-----0--------
-----0-----0-----------0-----0------------
-------0-----0-----------0-----0----------
-3----------------5-----------------------
------------------------------------------

verse part 2
------------------------------------------
---0-----0-----0-----0-----0-----0--------
-----0-----0-----------0-----0------------
-------0-----0-----------0-----0----------
-7----------------10----------------------
------------------------------------------

 G  D  Em  Am  C  C9  OPEN
-2--3---0---0---0--0----0-----------------
-0--3---0---1---1--3----0-----------------
-0--2---0---2---0--0----0-----------------
-0--0---2---2---2--2----0-----------------
-2--0---2---0---3--3----0-----------------
-3--2---0---------------0-----------------     
Добавлено: 07.06.2013
Другие материалы по этой песне:
  • Аккорды и текст

Страница создана 24.07.2012
http://primanota.ru/smashing-pumpkins/tonight-reprise-chords.htm
Привет, Гость.
Предлагаем пройти революционный курс по гитаре.
Подарок от PrimaNota.Ru, забирай!