PrimaNota.ru - самый крупный в мире бесплатный архив песенных текстов, аккордов, табулатур и нот


Smashing Pumpkins - Saturnine - аккорды и текст, таба, видео

Регистрация Запомнить меня
Войти через:  Facebook Google Twitter Vk Yandex Mail.ru

Smashing Pumpkins - Saturnine - аккорды и текст, таба, видео

Печатать
Просмотров: 165
Saturnine
Smashing Pumpkins
Song: "Saturnine" 
Artist: Smashing Pumpkins
Album: MACHINA II/THE FRIENDS AND ENEMIES OF MODERN MUSIC
Tuning: EADGBe
Notes: From the unofficially released final smashing pumpkins album. Is
arranged first 
by song structure, then the chords follow. Good song.

Verse
Gtr. I
E5i  G5i  E5i
C  Dsus
Gtr. II
E5ii G5ii E5ii
C5 D5

Chorus
Gtr. I
D to Dsus2
E5i 
(Except first time, this first segment repeats)
D to Dsus2
C  E5i
Gtr. II
D5
E5ii
(same as above)
D5
C5 E5II

PostChorus
Gtr. I 
(w/ riffs 1 and 2)
Gtr. II
E5ii (every few bars)

Outro
Gtr. I
(w/ riff 3)
Gtr. II
E5ii (every few bars)

Gtr. I Chords
E5i  G5i   C   Dsus  D
-0-  -3-  -0-  -0-  -2-
-0-  -3-  -1-  -3-  -3-
-x-  -0-  -0-  -2-  -2-
-2-  -0-  -2-  -0-  -0-
-2-  -x-  -3-  ---  -0-
-0-  -3-  ---  ---  ---
   
Gtr. II Chords
E5   G5ii C5   D5
---  ---  ---  ---
---  ---  ---  -3-
---  ---  -5-  -2-
-2-  -5-  -5-  -0-
-2-  -5-  -3-  -0-
-0-  -3-  ---  ---

Riff 1
-------------------------
-------------------------
-------------------------
-------------------------
--------2--2--0--0--2--2-
--0--0-------------------

Riff 2
-------------------------
-------------------------
-------------------------
-------------------------
--------2--2--0--0--5--5-
--0--0-------------------

Riff 3
--------------------------
--------------------------
--------------------------
--------------------------
--2~~-0~~-2~~-0~~---------
------------------3~~-2~~-



Tab by Nate (zero606@excite.com)
     
Добавлено: 05.06.2013
Другие материалы по этой песне:
  • Аккорды и текст

Страница создана 26.03.2012
http://primanota.ru/smashing-pumpkins/saturnine-chords.htm
Привет, Гость.
Предлагаем пройти революционный курс по гитаре.
Подарок от PrimaNota.Ru, забирай!