PrimaNota.ru - самый крупный в мире бесплатный архив песенных текстов, аккордов, табулатур и нот


Smashing Pumpkins - Pissant - аккорды и текст, таба, бас-таба, видео

Регистрация Запомнить меня
Войти через:  Facebook Google Twitter Vk Yandex Mail.ru

Smashing Pumpkins - Pissant - аккорды и текст, таба, бас-таба, видео

Печатать
Просмотров: 130
Pissant
Smashing Pumpkins



Date: Wed, 28 Jun 2000 22:11:16 -0400
From: Maxacaster@aol.com
Subject: s/smashing_pumpkins/pissant.crd

Song: Pissant
Artist: Smashing Pumpkins
Album: Pisces Iscariot
Written By: Billy Corgan
Tabbed By: Max Perenchio (Maxacaster@aol.com)
Tuning: Eb
Notes: Ahh I finally get to tab a song from Pisces. The
song is aggressive and distorted.
    
///INTRO     FIG 1
E-----------------------------------------------
B----------------------------------------------- 
G-----------7--7-7------------------------------ 
D-2--2-5-7--7--7-7--7---------------------------
A-2--2-5-7--5--5-5--7--------------------------- 
E-0--0-3-5----------5---------------------------
 
///VERSE FIG 2
E---------------------------------------------
B---------------------------------------------
G-------------7----9------------------------
D-2----2----7----9------------------------
A-2----2----5----7------------------------
E-0-----0-------------------///19~~~~~~-------

///CHORUS    FIG 1

///VERSE     FIG 2

///CHORUS    FIG 1


///BRIDGE    FIG 3 (there are 3 parts to the bridge)
E--------------
B-------------- 
G-------------- 
D-2------------
A-2-----9--8--- 
E-0--0--7--6---         

FIG 4
E----------------------------------------------------
B---------------------------------------------------- 
G---------------------------------------------------- 
D--5-5-5-5-5-5-5-5-5-5-7-7-7-7-7-7-7-7-7-7-7-7-------
A--5-5-5-5-5-5-5-5-5-5-7-7-7-7-7-7-7-7-7-7-7-7------- 
E--3-3-3-3-3-3-3-3-3-3-5-5-5-5-5-5-5-5-5-5-5-5------            

FIG 5
E---------------------------------------------------r
B---------------------------------------------------e 
G--7-7-7-7-7-5-5-5-5-5------------------------------p x4
D--7-7-7-7-7-5-5-5-5-5-5----------------------------e
A--5-5-5-5-5-3-3-3-3-3-5----------------------------a
E----------------------3----------------------------t

///SOLO
Sorry, no solo (as usual for me)

///OUTRO     FIG 3
Thats it...tell me what ya think.


Добавлено: 22.02.2014
Другие материалы по этой песне:

Страница создана 23.02.2012
http://primanota.ru/smashing-pumpkins/pissant-chords.htm
Привет, Гость.
Предлагаем пройти революционный курс по гитаре.
Подарок от PrimaNota.Ru, забирай!