PrimaNota.ru - самый крупный в мире бесплатный архив песенных текстов, аккордов, табулатур и нот


Smashing Pumpkins - Out Of Focus - таба, видео

Регистрация Запомнить меня
Войти через:  Facebook Google Twitter Vk Yandex Mail.ru

Smashing Pumpkins - Out Of Focus - таба, видео

Печатать
Просмотров: 135
Out of Focus - as performed by Smashing Pumpkins
============   by, did Billy say "Blue Tear" on the
               Out of Focus boot?

*1

Both guitars, G2 enters after G1 plays the riff once.

|-----------------------------------------------------|
|-----------------------------------------------------|
|----2--5-2-5-2-X---7-----7---------------------------|
|----2--5-2-5-2-X---7-X---7---------------------------|
|-0--0--X-0-X-0-X---5-X---5---------------------------|
|-----------------0-----0-----------------------------|

*2

|-----------------------------------------------------|
|-----------------------------------------------------|
|-7-7-7---9--9-9-9-----7-7-7-7---5--------------------|
|-7-7-7-X-9--9-9-9-X-X-7-7-7-7---5--------------------|
|-5-5-5-X-7--7-7-7-X-X-5-5-5-5-0-3--------------------|
|-----------------------------------------------------|

|-12-10-8---------------------------------------------|
|---------10-8-10-8-----------------------------------|
|-------------------9-7-5-----------------------------|
|-------------------------7-5-7-----------------------|
|-----------------------------------------------------|
|-----------------------------------------------------|

return to *1

Outro:

|-12-10-8---------------------------------------------|
|---------10-8-10-8-----------------------------------|
|-------------------9-7-5-----------------------------|
|-------------------------7-5-7-5---------------------|
|---------------------------------7-5-3---------------|
|---------------------------------------5-3-5-3-5~----|
Добавлено: 15.03.2012
Другие материалы по этой песне:
  • Аккорды и текст

Страница создана 15.03.2012
http://primanota.ru/smashing-pumpkins/out-of-focus-chords.htm
Привет, Гость.
Предлагаем пройти революционный курс по гитаре.
Подарок от PrimaNota.Ru, забирай!