PrimaNota.ru - самый крупный в мире бесплатный архив песенных текстов, аккордов, табулатур и нот


Smashing Pumpkins - Jersey Shore - таба, видео

Регистрация Запомнить меня
Войти через:  Facebook Google Twitter Vk Yandex Mail.ru

Smashing Pumpkins - Jersey Shore - таба, видео

Печатать
Просмотров: 134
************************* P L E A S E  N O T E *************************

       You may only use this tab for private study, research, etc.
        Do not change, deface, mutilate, steal or alter this tab.
    You must email me first if you want to use this tab on your site.

 ************************* P L E A S E  N O T E *************************


--Title: Jersey Shore
--Artist: The Smashing Pumpkins
--Release: Adore Demos II
--Last updated: 10/3/2010

--Transcription by: J Elliott Dozier
--Contact: elliott_dozier at hotmail.com

--Tuning: EbGbDbGbBbDb (Standard tuning one half step down, then 
--with the A & high E string strings tuned down one whole step)

--VERSE 1

|------0--0------0--0-----|
|------0--0------0--0-----|
|--0---0--0------0--0-----|
|--0-------------0--0-----|
|--0---------0---------0--|
|-------------------------|

  On the jer-sey shore...
|---------------------0--0------0--0-----|
|---------------------0--0------0--0-----|
|--0---0--0---2---4---4--4------4--4-----|
|--0---0--0---5---5----------------------|
|-----------------0---------0---------0--|
|----------------------------------------|


Send all our dimes...
|--------------------0--0------------0--|
|---------5---3------0--0--7~--0--0--0--|
|--4---4-------------0--0--0---0--0--0--|
|-(0)-(0)------------0--0--0---0--0--0--|
|----0-----------0----------------------|
|---------------------------------------|

   I was get-ting change...		back of my mind...
|------------------2--2------0--0----------2p0-0--0--|
|--------------1---1--1------1--1----------1---1--0--|
|--4---5--4\---2---2--2------2--2----------2---2--0--|
|--------------2---------2---2--2--2---2-------------|
|----0-----------------------------------------------|
|----------------------------------------------------|

--VERSE 2

|------0--0------0--0-----|
|------0--0------0--0-----|
|------0--0------0--0-----|
|------0--0------0--0-----|
|--0---------0---------0--|
|-------------------------|

     Shoo-ting blanks...
|---------------------0--0------0--0-----|
|---------------------0--0------0--0-----|
|--0---0---2---4------4--4------4--4-----|
|--0---0---5---5------0--0------0--0-----|
|----------------(0)--------0---------0--|
|----------------------------------------|


  In Jer-sey town...
|--------------------0--0--4~--0--0-----|
|---------5\--3------0--0--0---0--0-----|
|--4---4--0---0------0--0--0---0--0-----|
|----0---------------0--0--0---0--0-----|
|----------------0-------------------0--|
|---------------------------------------|

  We tun-neled in...			Manhattan-bound...
|------------------0--0----------------2---2p0-0--0--|
|--------------1---1--1---------1------1---1---1--0--|
|--4---5--4\---2---2--2---------2------0---0---0--0--|
|--------------2---------2---2-----2---2-------------|
|----0-----------------------------------------------|
|----------------------------------------------------|

|------0--0-----|
|------0--0-----|
|------0--0-----|
|------0--0-----|
|--0---------0--|
|---------------|

--CHORUS 1

 What can we       do?
There's life yet for me...
					x2
|--4\-2---0---0--0--0------0--0--------|
|--3\-1---1---1--1--0------0--0--------|
|--0--0---0---0--0--0------0--0--------|
|--4\-2---2---------0------0--0--0--0--|
|----------------------0---------0--0--|
|--------------------------------------|

With a sweet young thing...  and a cool, cool breeze...
|--4\-2---0---0--0--0---0--0-----------------2--0--|
|--3\-1---1---1--1--3---3--3----3---1----1---1--1--|
|--0--0---0---0--0--4---4--4----4---2----0---0--0--|
|--4\-2---2---------4---4--4----4---2----2---2--2--|
|-------------------4-----------4---2----2---------|
|--------------------------------------------------|

|------0--0--0---0--0---0---0--0--------|
|------0--0--0---3--1---1---1--0--------|
|------0--0--0---4--2---0---0--0--------|
|------0--0--0---4--2---2---2-----------|
|--0-------------4--2---2---2-----0-----|
|---------------------------------------|

--VERSE 3

  To the smokestack chime...
|------------------------0--0------0--0-----|
|------------------------0--0------0--0-----|
|--0---0--0---2---4------4--4------4--4-----|
|--0---0--0---0---0------0--0------0--0-----|
|---------4-------4-------------------------|
|------------------------------3---------3--|

  We carry forth...
|--0---0--0---0---0--0------0--0-----|
|--0---0--0---3---3--3------3--3-----|
|--4---4--4---4---4--4------4--4-----|
|--0---0--0---4---4--4------4--4-----|
|-------------4---------4---------4--|
|------------------------------------|

     Cinder child...  		  And nursery forts...
|--0-0-0-0----0---2-2-----0-0------0---2p0-0--0--|
|--3-3-3-3\---1---1-1-1---1-1-1----1---1---1--0--|
|--4-4-4-4\---2---2-2-2---0-0-0----0---0---0--0--|
|--4-4-4-4\---2---2-2-2---2-2-2----2-------------|
|--4----------2---2-2-2---2----------------------|
|------------------------------------------------|

|------0--0-----|
|------0--0-----|
|------0--0-----|
|------0--0-----|
|--0---------0--|
|---------------|

--BRIDGE

They are saints...    hovering...
|---------------4-----------2p0-0----------0----------|
|-------------3-----3-----1------------0-----0----0---|
|-----------0-----0-----0------------0----------------|
|---------4-----------2-----------0------0------------|
|-------0---------------------------------------0-----|
|-----------------------------------------------------|

The lost soul is...   carried down...
|---------------4-----------2p0-0------0-------0------|
|-------------3-----3-----1--------------0-------0----|
|-----------0-----0-----0--------------------0--------|
|---------4-----------2--------------0-----0-------0--|
|---------------------------------0-------------------|
|-----------------------------------------------------|

  Let him go...  on a riverbed...
|---------------4-----------2p0-0----0---------0------|
|-------------3-----3-----1------------0---------0----|
|-----------0-----0-----0-----------------------------|
|---------4-----------2-------------------------------|
|---------------------------------0-------0-4---------|
|-----------------------------------------------------|

God rest your soul... God rest this town...
|-------------------4----------------------------|
|-----------------3-----3------------------0-----|
|---------------0-----0---------0---0------0-----|
|-----------0-4-------------0---2---0------0-----|
|-------------------------5---------4--------0---|
|-----------------------------------3-3----------|

--CHORUS 2

What should we      do?
|--4\-2---0---0-----0-0-----|
|--3\-1---1---1-----0-0-----|
|--0--0---0---0-----0-0-----|
|--4\-2---2---------0-0-----|
|---------------0--------4--|
|---------------------------|

There's life yet for me...
|--4\-2---0---0-0-----0-0------|
|--3\-1---1---1-1-----0-0------|
|--0--0---0---0-0-----0-0------|
|--4\-2---2-----------0-0------|
|-----------------0-------0-4--|
|------------------------------|


With a sweet young thing...   and a cool cool breeze...
|--4\---2-----0-----0---0-0-0---0---0--------2--0--|
|--3\---1-----1-----3---3-3-3---3---1----1---1--1--|
|--0----0-----0-----4---4-4-4---4---2----0---0--0--|
|--4\---2-----2-----4---4-4-4---4---2----2---2--2--|
|-------------------4-----------4---2----2---------|
|--------------------------------------------------|

	      Say a prayer for me...
|------0--0------0--0---0---2--0--|
|------0--0------3--1---1---1--0--|
|------0--0------4--2---0---0--0--|
|------0--0------4--2---2---------|
|--0---------0---4--2---2---------|
|---------------------------------|

--VERSE 4

|------0--0------0--0-----|
|------0--0------0--0-----|
|------0--0------0--0-----|
|------0--0------0--0-----|
|--0---------0---------0--|
|-------------------------|

  In the pinball din...
|------------------------0--0------4--4-----|
|--0---0--0---0---0------0--0------0--0-----|
|--0---0--0---2---4------4--4------4--4-----|
|--0---0--0---0---0------0--0--0---0--0--0--|
|-----------------4------------4---------4--|
|-----------------------------(3)-----------|

  Done with glow...
|--0---0------0---0--0------0--0-----|
|--0---0--5---3---3--3------3--3--3--|
|--4---4--4---4---4--4------4--4--4--|
|--0---0--0---4---4--4------4--4--4--|
|-------------4---------4---------4--|
|------------------------------------|

Dream the Jersey shore...           We kiss in here...
|--0-0-0-0-------0---2-0-0---2-0-0---2-2-2-2-0-0--|
|--3-3-3-3\------1---1-1-1---1-1-1---1-1-1-1-1-0--|
|--4-4-4-4\------2---2-2-2---2-2-2---0-0-0-0-0-0--|
|--4-4-4-4\------2---2-2-2---2-2-2---2-2-2-2-2-0--|
|--4-------------2---2-------2-------2------------|
|-------------------------------------------------|

--OUTRO

|--0---0--0---0-0--|
|--3---3--0---0-0--|
|--4---4--0---0-0--|
|--4---4--0---0-0--|
|--4------0--------|
|------------------|

|-------0---0-0-0-0-0-0----0-0-0--|
|--8-7\-3---3-3-3-3-3-0----0-0-0--|
|--0-0--4---4-4-4-0-0-0----0-0-0--|
|-------4---4-4-4-4-4-0----0-0-0--|
|-------4---4-4-4-4-4-0-----------|
|---------------------------------|

|-------0---0-0-0-0-0-0----0-0-0--|
|--8-7\-3---3-3-3-3-3-0----0-0-0--|
|--0-0--4---4-4-4-4-4-0----0-0-0--|
|-------4---4-4-4-4-4-0----0-0-0--|
|-------4---4-4-4-4-4-0-----------|
|---------------------------------|


On the Jersey shore...
Is where I'll die...
				  x2
|-------0---0-0-0-0-0-0----0-0-0--|
|--8-7\-3---3-3-3-3-3-0----0-0-0--|
|--0-0--4---4-4-4-0-0-0----0-0-0--|
|-------4---4-4-4-4-4-0----0-0-0--|
|-------4---4-4-4-4-4-0-----------|
|---------------------------------|

 Hat in hand,      my eyes    to the sky...
|-------4---4-4-0-0-0--0--------0----0--0--|
|--8-7\-3---3-3-3-3-3\-1--------1----0--0--|
|--0-0--4---4-4-4-0-0--2----------------0--|
|-------4---4-4-4-4-4\-2------2----2----0--|
|-------4---4-4-4-4-4\-2----------------0--|
|------------------------------------------|


THE END!!!!!!!!!!!!!!!!!!!!!!!!!!!

b   - bend
r   - release
gb  - gradual bend
gr  - gradual release
h   - hammer on
p   - pull off
T   - trill
W   - whammy bar dive
\   - slide down
/   - slide up
x   - mute
X\  - pick slide
~~~ - vibrato
*7  - artificial harmonic
*7* - natural harmonic
... - palm mute
(0) - optional note
XXX - tremolo pick
alt - variation of riff>

LYRICS:

On the Jersey shore
Send all our dimes
I was getting change
Back of my mind

Shooting blanks
In Jerseytown
We tunneled in
Manhattan-bound

What can we do?
There's life yet for me
With a sweet young thing
And a cool, cool breeze

To the smokestack chime
We carry forth
Cinder child
And nursery forts

They are saints hovering
The lost soul is carried down
Let him go on a riverbed
God rest your soul
God rest this town

What should we do?
There's life yet for me
With a sweet young thing
And a cool, cool breeze
Say a prayer for me

In the pinball din
Done with glow
Dream the Jersey shore
We kiss in here

On the Jersey shore
Is where I'll die
Hat in hand
My eyes to the sky
Добавлено: 18.04.2012
Другие материалы по этой песне:
  • Аккорды и текст

Страница создана 18.04.2012
http://primanota.ru/smashing-pumpkins/jersey-shore-chords.htm
Привет, Гость.
Предлагаем пройти революционный курс по гитаре.
Подарок от PrimaNota.Ru, забирай!