PrimaNota.ru - самый крупный в мире бесплатный архив песенных текстов, аккордов, табулатур и нот


Smashing Pumpkins - Jennifer Ever - аккорды и текст, таба, бас-таба, видео

Регистрация Запомнить меня
Войти через:  Facebook Google Twitter Vk Yandex Mail.ru

Smashing Pumpkins - Jennifer Ever - аккорды и текст, таба, бас-таба, видео

Печатать
Просмотров: 149
Jennifer Ever
Smashing Pumpkins



Subject: s/smashing_pumpkins/jennifer_ever.crd
                    Jennifer Ever
                    =============

tabbed by Eric Agnew (agnew@cae.wisc.edu)
(Note: I'm not a guitarist (yet), so any tabbing errors shouldn't be
flamed...  (It's my first time  ) I am open to suggestions/
improvements, though :) I did use a guitar to figure this out...
14 years of piano = good ability to play by ear amp; figure stuff out :)
Also makes it much easier to self-teach another instrument... Anyway.)

Standard tuning, fairly easy song (i.e. I can play it... : )

Begin w/ pickup on an F chord, then play through main progression a couple
times, then the tab...

Main chord progressions: 

Am/Am2... F | Am Em G F | (repeat)
for chorus (My...noone): Am Em | Am Em | Am Em | F (someone just...)

Am         Am   Am  Am        F
She always waits...
Am Em G F
Am Am Am Am F
Am Em G F

Am         Em
My couple...
Am Em
Am Em
F (tab)

 (tab)
Jennifer...

Chords:

   Am  Am  Em  F  G 
E---0---0----0--1--3-
B---1---0----0--1--0-
G---2---2----0--2--0-
D---2---2----2--3--0-
A---0---0----2--3--2-
E---x---x----0--1--3-

The following tab is played during the Jennifer...Jennifer ever... part,
and a few times elsewhere, i.e. beginning, between w/o singing, etc....


E|---------------|---------------|
B|---------------|--------0------|
G|---------------|----------2----|
D|----2---3---2--|----3-------3--| (repeat 3x, on 4th time play F chord on
A|0-0---0---0----|---------------|  last beat as pickup to next measure)
E|--------------3|--3---3--------|

Here's what I got for the solo:

  a       a2 a a2         F       a       e     G             F
E|---------------|---------------|---------------|-------------------|
B|--1-1-1-0-----0|---------------|---------------|----------------0-1|
G|------------2--|--2------------|--------0-2-3-2|--3-2/32-0--------|
D|---------------|---------------|--0-2-3--------|-------------------|
A|---------------|---------------|---------------|-------------------|
E|---------------|---------------|---------------|-------------------|

  a    a2     a a2          F         a       e         G
E|-----------------|-----------------|---------------|--3-3-3-3-3-3-3|
B|--0---0---1-3-3/5|--5-5-0-0/1---1|--0-1-0---0----|--0-0-0-0-0-0-0| 
Добавлено: 30.10.2013
Другие материалы по этой песне:

Страница создана 21.02.2012
http://primanota.ru/smashing-pumpkins/jennifer-ever-chords.htm
Привет, Гость.
Предлагаем пройти революционный курс по гитаре.
Подарок от PrimaNota.Ru, забирай!