PrimaNota.ru - самый крупный в мире бесплатный архив песенных текстов, аккордов, табулатур и нот


Smashing Pumpkins - Im Going Crazy - таба, видео

Регистрация Запомнить меня
Войти через:  Facebook Google Twitter Vk Yandex Mail.ru

Smashing Pumpkins - Im Going Crazy - таба, видео

Печатать
Просмотров: 104
Smashing Pumpkins
I'm Going Crazy - Gish (1991)

Tuning: E A D G B E

Unlisted track at the end of Gish. 

VERSE
G/Bb G/Bb G/B G/B

Lead...
|-15------------------------------------|
|----15-------------15-12~~-------------|
|-------14b16r14~~-----------14~~-12~~\-|
|---------------------------------------|
|---------------------------------------|
|---------------------------------------|


CHORUS
Asus Cadd9


VERSE 2 - Same

Lead...
|-15------------------------------------|
|----15-------------15-12~~-------------|
|-------14b16r14~~-----------14~~-12~~\-|
|---------------------------------------|
|---------------------------------------|
|---------------------------------------|


CHORUS 2 - Same


VERSE 3 - Same

Lead...
|-15-----------------------------------------------------|
|----15--------------------------------------------------|
|-------14b16r14~~--11b12r11b12r11b12r11~~~~--14~~-12~~\-|
|--------------------------------------------------------|
|--------------------------------------------------------|
|--------------------------------------------------------|


CHORUS 3 - Same

End on Bbm7b5


Chords:
  G/Bb G/B Asus C9  Bbm7b5
|-3----3---0----0---0-----|
|-3----3---0----3---2-----|
|-0----0---2----0---0-----|
|-0----0---2----2---2-----|
|-1----2---0----3---1-----|
|-------------------------|

Lyrics:
i'm going crazy
i'm going crazy
i don't want feelings
your feelings

i have gone crazy
motherfuckin' crazy
i have gone

"Recorded live in the control room of Smart. We gather around the microphone, laughing and giggling at 
how stupid the song is. Who writes this shit? A false chord is fretted in mockery, the strange sound of 
the impending breakdown. It's too late to pull up, we are over the brink, there is no going back. 
They are coming to take me away ha! To be one, you must be crazy. To be crazy, you must be everyone. 
Bagpipes filter softly into the room, as a marching band strolls lazily past, smoking their last cigarette. 
Parade is over friends. Go home." -BC, Gish 2011 re-issue liner notes



Добавлено: 14.09.2015
Другие материалы по этой песне:

Страница создана 21.04.2012
http://primanota.ru/smashing-pumpkins/im-going-crazy-chords.htm
Привет, Гость.
Предлагаем пройти революционный курс по гитаре.
Подарок от PrimaNota.Ru, забирай!