PrimaNota.ru - самый крупный в мире бесплатный архив песенных текстов, аккордов, табулатур и нот


Smashing Pumpkins - Dross - текст песни, таба, видео

Регистрация Запомнить меня
Войти через:  Facebook Google Twitter Vk Yandex Mail.ru

Smashing Pumpkins - Dross - текст песни, таба, видео

Печатать
Просмотров: 197
                               "Dross"
                                 by
                        the Smashing Pumpkins

This song has been played by the Pumpkins for the last couple of years,
and only with the release of Machina II: Friends and Enemies of Modern
Music, does it appear on album.  The album version is a half step
down, but they play it live, and on a few other demos, tuned a full
step down and it sounds much better that way.  G here it is, really
easy song.

1 step down

Main Riff
|--------------------------------------------|
|--------------------------------------------|
|--------------------------------------------|
|--------------------------------------------|  repeat
|----------3---------3--------3--------------|
|--\/5-5-5-----1--1-1---0--0-0---3~---3-3/5--|

|------------------------------|
|------------------------------|
|------------------------------|
|------------------------------|
|------------------------------|
|--5--5--0--1---1--1--0--8--8--|

lyrics begin...
|-------------------------------------|
|-------------------------------------|
|-------------------------------------|
|-------------------------------------|
|-------------------------------------|
|--5--5--4--3---3--2--1--1--1---0--3--|

|------------------------------|
|------------------------------|
|------------------------------|
|------------------------------|
|------------------------------|
|--5--5--0--1--1--1--0--8--8\--|

|-------------------------------------|
|-------------------------------------|
|-------------------------------------|
|-------------------------------------|
|-------------------------------------|
|--5--5--4--3---3--2--1--1--1---/8\3--|



no really new stuff from here, end on 5th position

questions, comments:
independence71@hotmail.com

     
Добавлено: 03.11.2013
Другие материалы по этой песне:
  • Аккорды и текст

Страница создана 12.03.2012
http://primanota.ru/smashing-pumpkins/dross-chords.htm
Привет, Гость.
Предлагаем пройти революционный курс по гитаре.
Подарок от PrimaNota.Ru, забирай!