PrimaNota.ru - самый крупный в мире бесплатный архив песенных текстов, аккордов, табулатур и нот


Smashing Pumpkins - Crash Car Star - таба, бас-таба, видео

Регистрация Запомнить меня
Войти через:  Facebook Google Twitter Vk Yandex Mail.ru

Smashing Pumpkins - Crash Car Star - таба, бас-таба, видео

Печатать
Просмотров: 113
                       Crash Car Star
                              by
                    The Smashing Pumpkins


	This song, to my knowledge, was only played at 1998's
Holloween Concert at Dodget Stadium when they played with Kiss,
and is not on any album that I know of.  They may have also
played it on the Arising Tour because I believe it was that
year, but I'm not sure.
	They performed it more than once that night, so there
is more than one version of this song - all of which are on
napster or other web sites if you look hard enough.  This is
the version of the one I have.  Since there is more than one
version, this one may not match the one you have.  On the whole,
the versions are more or less the same.  Hope you like it!



(1*)  Intro. x4
|--------------------------------------------------|
|--------------------------------------------------|
o--------------------------------------------------o
o---5-3-5-------3-5-3-5---3-6----------------------o
|---5-3-5-------3-5-3-5---3-6----------------------|
|---3-1-3-------1-3-1-3---1-4----------------------|


guitar fades out...(drums only)

billy goes a capella, then


(2*)
|--------------------------------------------------|
|--------------------------------------------------|
o--------------------------------------------------o
o-------5-3-5--------------3-5-3-5-3-5-6-----------o
|-------5-3-5--------------3-5-3-5-3-5-6-----------|
|-------3-1-3--------------1-3-1-3-1-3-4-----------|
                                     ^ In my version, this is played,
                             though in other versions, it may not be.



(3*)
|-----------------------------------------|
|-----------------------------------------|
|-----------------------------------------|
|-------3---6-5----------3---6-5----------|
|-------3---6-5----------3---6-5----------|
|-------1---4-3----------1---4-3----------|


(4*)
|-----------------------------------------|
|-----------------------------------------|
|-----------------------------------------|
|-------4---7-6----------4---7-6----------|
|-------4---7-6----------4---7-6----------|
|-------2---5-4----------2---5-4----------|


(3*)
|-----------------------------------------|
|-----------------------------------------|
|-----------------------------------------|
|---3---6-5----------3---6-5--------------|
|---3---6-5----------3---6-5--------------|
|---1---4-3----------1---4-3--------------|

(5*)
|-----------------------------------------|
|-----------------------------------------|
|-----------------------------------------|
|---2---6-5----------2---6-5--------------|
|---2---6-5----------2---6-5--------------|
|---0---4-3----------0---4-3--------------|

guitar fades out...(drums & bass only)

billy goes a capella again, then...

(2*)**
|---------------------------------------------|
|---------------------------------------------|
|---------------------------------------------|
|-------5-3-5--------------3-5-3-5-3-5-6------|
|-------5-3-5--------------3-5-3-5-3-5-6------|
|-------3-1-3--------------1-3-1-3-1-3-4------|
    **there's some kind of weird solo going on here
so I assume that the first guitar is doing this while
the second guitar is doing the solo**

from here you just play 3,4,3 and 5 again twice, then
more of the weird solo with the main riff played underneath.
then this...

(6*)   -distortion-

|------------------------------------------------|
|------------------------------------------------|
|------------------------------------------------|
|------------------------------------------------|
|------------------------------------------------|
|--11---------------------10---------------------|



|------------------------------------------------|
|------------------------------------------------|
|------------------------------------------------|
|------------------------------------------------|
|------------------------------------------------|
|--7----------------------6----------------------|



|------------------------------------------------|
|------------------------------------------------|
|------------------------------------------------|
|------------------------------------------------|
|------------------------------------------------|
|--5----------------------3----------------------|



|------------------------------------------------|
|------------------------------------------------|
|------------------------------------------------|
|------------------------------------------------|
|------------------------------------------------|
|--2----------------------0----------------------|
                          ^this is arguable, as is most,
if not all, of this last part.  I've changed my mind hundreds
of times about it, but this way sounds good to me.  Also, in
other versions, this entire riff isn't there, so it depends
which you have.

(7*)
|------------------------------------------------|
|------------------------------------------------|
|------------------------------------------------|
|--5-3-5-6----5-3-5-3-5---3-6--------------------|
|--5-3-5-6----5-3-5-3-5---3-6--------------------|
|--3-1-3-4----3-1-3-1-3---1-4--------------------|



	 I'm not so sure about the tuning, so you'll
just have to mess around with it.  But that sounds more or less
correct.

questions, comments:
independence71@hotmail.com

~/~
     
Добавлено: 02.10.2013
Другие материалы по этой песне:
  • Аккорды и текст

Страница создана 30.06.2012
http://primanota.ru/smashing-pumpkins/crash-car-star-chords.htm
Привет, Гость.
Предлагаем пройти революционный курс по гитаре.
Подарок от PrimaNota.Ru, забирай!