PrimaNota.ru - самый крупный в мире бесплатный архив песенных текстов, аккордов, табулатур и нот


Smashing Pumpkins - Aeroplane Flies High - аккорды и текст, таба, бас-таба, видео

Регистрация Запомнить меня
Войти через:  Facebook Google Twitter Vk Yandex Mail.ru

Smashing Pumpkins - Aeroplane Flies High - аккорды и текст, таба, бас-таба, видео

Печатать
Просмотров: 130
Aeroplane Flies High
Smashing Pumpkins
--------------------------------------------------
The Aeroplane Flies High (Turns Left, Looks Right)
Smashing Pumpkins	(Written by Billy Corgan)
Aeroplane Flies High Box Set
--------------------------------------------------

Tabbed by Mike Helgerson (mikehelgerson@hotmail.com)
Standard Tuning (E A D G B E)

I have seend countless tabs for this song and none of them sound correct.
Here is how I play the main riff:

I just use power chords and it sounds fine to me.

E[----------------------------------------------------------------------]
B[----------------------------------------------------------------------]
G[------------------------------------4-4-4-4-4-4-4-4-4-4-4-7-7--2-2----]
D[--5-5-5-5-5-5-5-5--3-3-3-3-3-2-2-2--4-4-4-4-4-4-4-4-4-4-4-7-7--2-2--2-]
A[--5-5-5-5-5-5-5-5--3-3-3-3-3-2-2-2--2-2-2-2-2-2-2-2-2-2-2-5-5--0-0--2-]
E[--3-3-3-3-3-3-3-3--1-1-1-1-1-0-0-0----------------------------------0-]

I don't think is how the Pumpkins actually play it but it sounds more like
the song than any tab I've seen.  Enjoy!

-- 

     
Добавлено: 11.09.2013
Другие материалы по этой песне:

Страница создана 19.03.2012
http://primanota.ru/smashing-pumpkins/aeroplane-flies-high-chords.htm
Привет, Гость.
Предлагаем пройти революционный курс по гитаре.
Подарок от PrimaNota.Ru, забирай!