PrimaNota.ru - самый крупный в мире бесплатный архив песенных текстов, аккордов, табулатур и нот


Small Faces - Talk To You - текст песни, таба, видео

Регистрация Запомнить меня
Войти через:  Facebook Google Twitter Vk Yandex Mail.ru

Small Faces - Talk To You - текст песни, таба, видео

Печатать
Просмотров: 166
----------------------------------------------------------------------------
                             Talk To You - The Small Faces
                                                   (Marriott/Lane)
----------------------------------------------------------------------------
Tabbed by: Sam Nash
Email: 01nashsm@dronfield.derbyshire.sch.uk

Hi, great song from a great band. R.I.P Steve and Ronnie!

Chords used:
E: 022100
B: x24442
A: x02220
G: 355433
C#m: 446654

riff1:  (For Reference Only)
e]-----4----------0-----4--------0----|
B]----------------0--------------0----|
G]--4-----4--2----1--4----4--2---1----|
D]----------------2--------------2----|
A]----------------2--------------2----|
E]--------------0--------------0------|


Intro:
e|---------0-----4-----------0-------------0-----4-----------0-----4-------0-|
B|---------0-----------------0-------------0-----------------0-------------0-|
G|---------1---4----2--0-----1-------------1--4-----4--2-----1--4----4--2--1-|
D|2-0------2-----------------2-----0---0---2-----------------2-------------2-|
A|----2----2-----------------2--0h2-0h2----2-----------------2-------------2-|
E|------0-----------------0--------------0----------------0---------------0--|


Verse 1:

E
Listen!
E                         B      A                E (riff1)
Its been six months since I was last with you   Ha!
E                     B      A           E  (riff1)
So many people tryna stop me gettin through    Ha!
G                           A
The doorman he just laughed (he just laughed)
G                           A
But I dont want no autograph (autograph)
G          B         E           (riff1)
All I want to do, is talk to you

Verse 2:

E                               B                A          E (riff1)
You know I didnt stop you doing things that you wanted to do  Ha!
E                        B              A           E (riff1)
But now its gone to far, it looks like Im lossing you   Ha!
G                          A
I dont want your sympathy (sympathy)
                                    A
But please dont turn your back on me, listen baby
G             B        E
All I want to do is talk to you

Bridge:

C#m
I gotta talk to you
B
I gotta make you see
C#m
Just how very much
E
You mean to me, oh yeah yeah yeah!

Verse 3:

E                      B               A         E  (riff1)
Would it be to much to try an jog your memory, you remember me baby, ha!
E                     B            A       E  (riff1)
I hope that I'm still part of your history,   ha!

G                          A
I dont wanna share your car
G                       A
Or stop you being a star
G           B      E
All I wanna do, is talk to you
(riff1)
Talk!
(riff1)
Talk!
(repeat and fade + add vocal ad libs)
Добавлено: 30.06.2012
Другие материалы по этой песне:
  • Аккорды и текст

Страница создана 02.03.2012
http://primanota.ru/small-faces/talk-to-you-chords.htm
Привет, Гость.
Предлагаем пройти революционный курс по гитаре.
Подарок от PrimaNota.Ru, забирай!