PrimaNota.ru - самый крупный в мире бесплатный архив песенных текстов, аккордов, табулатур и нот


Small Black - No Stranger - бас-таба, видео

Регистрация Запомнить меня
Войти через:  Facebook Google Twitter Vk Yandex Mail.ru

Small Black - No Stranger - бас-таба, видео

Печатать
Просмотров: 338
Уроки эстрадного вокала в Санкт-Петербурге
Авторы музыки: Small Black

-----------------------------------------------------------------
No Stranger – Small Black
-----------------------------------------------------------------
Tabbed By: Madrone6
e-mail: je.mathnerd15@gmail.com
Tuning: Standard

Verse: (x4)

G|----------------|----------------|----------------|----------------|
D|----------------|-------------2--|3--3--3---3--2--|----------------|
A|3--3--3---------|3--3--3---3-----|----------------|----------------|
E|----------1--3--|----------------|----------------|5--5--5---5--3--|

Chorus: Verse (x2)

Break: Verse (x2)

Verse: (x4)

Chorus: (x4)

Bridge Part 1: (x4)

G|----------------|2---------------|----------------|2-------------5-|
D|3---------------|----------------|3---------------|----------------|
A|----------------|----------------|----------------|----------------|
E|----------------|----------------|----------------|----------------|

Bridge Part 2: (x16) 

G|----------------|----------------|
D|3--3--3---3--2--|----------------|
A|----------------|----------------|
E|----------------|5--5--5---5--3--|

Outro:

G|----------------|2---------------|----------------|2-------------5-|
D|3---------------|----------------|3---------------|----------------|
A|----------------|----------------|----------------|----------------|
E|----------------|----------------|----------------|----------------|

G|----------------|2---------------|----------------|2---------------|
D|3---------------|----------------|3---------------|----------------|
A|----------------|----------------|----------------|----------------|
E|----------------|----------------|----------------|----------------|



| /  slide up
| \  slide down
| h  hammer-on
| p  pull-off
| ~  vibrato
| +  harmonic
| x  Mute note

Добавлено: 31.08.2013
Вам также может быть интересно:
Другие материалы по этой песне:
  • Аккорды и текст

Страница создана 31.08.2013
http://primanota.ru/small-black/no-stranger-chords.htm
Привет, Гость.
Предлагаем пройти революционный курс по гитаре.
Подарок от PrimaNota.Ru, забирай!