PrimaNota.ru - самый крупный в мире бесплатный архив песенных текстов, аккордов, табулатур и нот


Smak - Blues U Parku - таба, видео

Регистрация Запомнить меня
Войти через:  Facebook Google Twitter Vk Yandex Mail.ru

Smak - Blues U Parku - таба, видео

Печатать
Просмотров: 113
Group: 	SMAK
Song: 	Blues u Parku
Tabbed by: 	Chavdar Popov   c h a v d a r @ b o u r g a s . c o m

We used to play this song around '76 in Bulgaria. If anyone tries this
please let me know what you think on email above (remove spaces in address)
CPopov, June 02

Guitar: Strat, bridge pickup, tone 9/10, volume 7/10, medium to high gain
Note:   To get the right sound remember to adjust the guitar tone and volume
        pots down/up where shown.


 intro

   Em         C                Am             G         H            H7
--------------------------------------------------------------------------
-----------------------1--------------------------------------0-----------
--------0------------0---0--------2h4p2-0-------------------2---2--------2
----------2--------2---------------------2----------------4-------4----4--
------2-----2-3------------3-2-0----------2-0------0-1--2------------0----
---0------------------------------------------3--3------------------------


              Em   ...
-----------------0x----------------------------------3-5b7-5-3------------
--0--------------0x------------------------3-5-5-3h5-----------5-3-5-b8---
---2--2h4p2p0---------2h4p2p0-2-2-0---0-2-4-------------------------------
--------------------------------------------------------------------------
--------------------------------------------------------------------------
--------------0-----------------------------------------------------------



-------------------------2---5p2------------------------------------------
--(5)b8r5p3---3h5p3-----3x-------0----------------------------------------
-----------4-------4---4x----------4-3-2----2h4p2p0-----------------------
-----------------------------------------------------2------singing...----
--------------------------------------------------------------------------
--------------------------------------------------------------------------


solo
--------------------------------------------------------------------------
----half muted---------------------------------15b17---15b19-15-12--------
--12---14-12---14x-12x---14b16r14-12------12----------------------14b16---
----14x-----14----------------------14-14---------------------------------
--------------------------------------------------------------------------
--------------------------------------------------------------------------

                        repeat figure
------12--------------------------------------------------(17)b19r17-15---
---12----12--15p12----12-15p12-----------12-15p12---12-----------------17-
-------------------14---------- . . .-14----------14--14------------------
--------------------------------------------------------------------------
--------------------------------------------------------------------------
--------------------------------------------------------------------------


--17b19r17p15----------19b20-19-17-19--------------------15-17\15-14tr15--
-------------17-----17----------------20p19-17-----17-19------------------
--------------------------------------------------------------------------
--------------------------------------------------------------------------
--------------------------------------------------------------------------
--------------------------------------------------------------------------

                  slow bend
--15/14/12--14-12-11----b12--------------------12---------------------12--
---------------------------------/17-17-17/---------12-15-12-------12-----
------------------------------------------------------------14b16---------
--------------------------------------------------------------------------
--------------------------------------------------------------------------
--------------------------------------------------------------------------


-----------------------------------------------------15-------------------
--15b17----15b17-15-12----------------------------------15----------------
-----------------------14b16r14p12-------12-14-14b16------(14)b16---------
----------------------------------14--------------------------------------
--------------------------------------------------------------------------
--------------------------------------------------------------------------


---------------------------------3h5---5/7-5-3h5--------2-3-2-0------2-3--
-------------------8h10-------3h5----------------3--3-5----------3-5------
--(14)b16r14v-----------7h9-----------------------------------------------
--------------------------------------------------------------------------
--------------------------------------------------------------------------
--------------------------------------------------------------------------


--2h3p2p0--2/3-5---5h6h7--3-5--3\2-0--3-----------------------------------
---------------------------------------------------------------3-5-5-/----
----------------------------------------4--------2h4p2p0----2h3h4---------
---------------------------------------------------------2----------------
--------------------------------------------------------------------------
--------------------------------------------------------------------------


---12-----12-----14-----------------------------------------------14-17p14
---15b17--12b17--17b19--17b19r17-15-17b19r17-15-17b19r17-15------15x------
------------------------------------------------------------16--16x-------
--------------------------------------------------------------------------
--------------------------------------------------------------------------
--------------------------------------------------------------------------


                                                repeat figure
--17b19--15---------------------------17----------------------------------
------------17-17--------------------------15b12--12-15p12---12-15p12-----
--------------------------------12-14-----------14---------14-------------
-------------------------12-14--------------------------------------------
-------------------12-14--------------------------------------------------
--------------------------------------------------------------------------


---------------------------------------------------12---------------------
--15h17r15-12---13p12--12-----------------------12----15p12----12---------
---------------------14--14p12-14p12---12-14b16-------------14------------
------------------------------------14------------------------------------
--------------------------------------------------------------------------
--------------------------------------------------------------------------


  artificial harmonic                 palm mute until *
--15----------------------------------------------------------------------
-----15-12----------------------------------------------------------------
-----------14b16-14-12---------------------------12----14-12--------------
-------------------------------------------12h14----14-------14p12---14---
----------------------14-12h14-14----12h14------------------------14------
--------------------------------------------------------------------------


--------------------------------------------------------------------------
--------------------------------------------------------------------------
----------12--14-12---------------------12--14-12---------------------12--
-----12h14--14-----14p12---14-----12h14--14-------14p12--14------12h14----
--14---------------------14-----14---------------------14-----14----------
--------------------------------------------------------------------------

            *
--------------------------12-14h15p14p12----------------------------------
----------------12--14h15-----------------15p4p12-------------------------
-----14-12-14h15-----------------------------------15p14-12--14--12-------
--14-------------------------------------------------------14--14---14p12-
--------------------------------------------------------------------------
--------------------------------------------------------------------------


--------------------------------------------------------------------------
--------------------------------------------------------------------------
--------------12--14-12--11h12-11tr12--11---12-12/11-9-11-9-8h9-8tr9-8-9p8
----14--12h14---14--------------------------------------------------------
--14----------------------------------------------------------------------
--------------------------------------------------------------------------


turn tone pot fully down
--------------------------------------------------------------------------
-----------------------------------------------------------3--------------
--h9----2-4-----------------0---------------0-2-0---------2--------0------
--------------2-2-4-0-2---4---4-2-----0-2-4-------4-0----4---0-0-4--------
----------------------------------------------------------------------2---
--------------------------------------------------------------------------


--------------------------------------------------------------------------
--------------------------------------------------------------------------
-------------------4b5-4-2-4---5-4--2-4-0-2--------0h2h4p2p0---0----------
------0-2-0---------------------------------4--2-4-----------4---2-4-0-2-4
--0-2-------4-2--------------3--------------------------------------------
--------------------------------------------------------------------------

                turn tone pot up
--------------------------------------------------------------------------
-------------------0------0-7-0-0-8-0-0-10-0-0-10-0-8-10b12-8----------10-
--0-----------------------------------------------------------9---9-8-9---
----4h5-4tr5-4------------------------------------------------------------
--------------------------------------------------------------------------
--------------------------------------------------------------------------


--------10-------------12-------------------------------------------------
--10b12---10b12-10---10--10-10b12r10---8----------------------------------
-----------------------------------------9---7h9-7-------------------7----
----------------------------------------------------9\7-5-7-5--5-7/9---9/7
--------------------------------------------------------------------------
--------------------------------------------------------------------------


        turn volume down
--------------------------------------------------------------------------
----------------------------12----7------8-------10-------8-------7-------
----------------------------12----9b11---(10)b12-(12)b14-(10)b12--(9)b11--
--5-7-5---------------------13--------------------------------------------
----------------------------14--------------------------------------------
---------7--7-5-7-5-7-/---------------------------------------------------


--------------------------------------------------------------------------
--5---------3-----4-----5------7----------8-------10-------12------10-----
--(7)b9-----5b7---6b8---(7)b9--9b11-------10b12---(12)b14--(14)b16-(12)b14
--------------------------------------------------------------------------
--------------------------------------------------------------------------
--------------------------------------------------------------------------


                        turn volume up
----------------------------------------------------2h3p2p0---------------
--8-------7---------3-------------------------3p2p0--------2h3p2p0--------
--(10)b12-(9)b11----5b7--(5)7r5-3h4-4--0-3p2p0---------------------2h3p2p0
--------------------------------------------------------------------------
--------------------------------------------------------------------------
--------------------------------------------------------------------------

--------------0x-------------------------------------3-5b7-5-3------------
--------------0x--------------------------3-5-5---/5-----------5-3-5-b8---
--2h3p2p0-----------2h4p2p0-2-2b-0--2h3h4---------------------------------
--------------------------------------------------------------------------
--------------------------------------------------------------------------
-----------0--------------------------------------------------------------

                                                Em    ...
---------------------2---5--2---------------------------------------------
--5b8r5p3---3-------3x--------0-------------------------------------------
----------4---4----4x-----------4-3-2-----4-2-0--------singing------------
-------------------------------------------------2------------------------
--------------------------------------------------------------------------
--------------------------------------------------------------------------


Tablature symbols:

      h - hammer on
      p - pull off
      b - bend string up
      ( )b - pre bend
      r - release bend
      / - slide up
      \ - slide down
      v - vibrato
      tr - trill (fast hammer on and pull off between 2 notes)
      x - play note with heavy damping
Chavdar

     
Добавлено: 09.10.2013
Другие материалы по этой песне:
  • Аккорды и текст

Страница создана 09.10.2013
http://primanota.ru/smak/blues-u-parku-chords.htm
Привет, Гость.
Предлагаем пройти революционный курс по гитаре.
Подарок от PrimaNota.Ru, забирай!