PrimaNota.ru - самый крупный в мире бесплатный архив песенных текстов, аккордов, табулатур и нот


Sly & The Family Stone - In Time - бас-таба, видео

Регистрация Запомнить меня
Войти через:  Facebook Google Twitter Vk Yandex Mail.ru

Sly & The Family Stone - In Time - бас-таба, видео

Печатать
Просмотров: 54
Авторы музыки: Sly Stone
Авторы текста: Sylvester Stewart
Title: In Time
SubTitle: Bass
Artist: Sly and the Family Stone
Album: Fresh

Electric Bass

G |-------|-------|-------|-------|-------|-------|-------|
D |-------|-------|-------|-------|-------|-------|-------|
A |-------|-------|-------|-------|-------|-------|-------|
E |-------|-------|-------|-------|-------|-------|-------|


----------------------------------------------------|
----------------------------------------------------|
--5-----5-----------5--4--3-----3-----------5--3----|
----------------------------------------------------|


----------------------------------------------------|
--3-----3-----------3-----3-----3-------------------|
-----------------------3--------------------3--4----|
----------------------------------------------------|


----------------------------------------------------|
--------------------------------------------2-------|
--5-----5-----------5--4--3-----3-------------------|
----------------------------------------------------|


----------------------------------------------------|
--3-----3-----------------3-----3-------------------|
--------------------3--3--------------------3--4----|
----------------------------------------------------|


----------------------------------------------------|
----------------------------------------------------|
--5-----5-----------5--5--3-----3-----------5--3----|
----------------------------------------------------|


----------------------------------------------------|
--3-----3-----------------3-----3-------------------|
--------------------5--3-----------------3--3--3----|
----------------------------------------------------|


----------------------------------------------------|
----------------------------------------------------|
--5-----5-----------5--4--3-----3-----------5--3----|
----------------------------------------------------|


----------------------------------------------------|
--3-----3-----------------3-----3-------------------|
--------------------5--3--------------------5--3----|
----------------------------------------------------|


--------------------------1-----1--------------1----|
--3-------------------------------------------------|
----------------------------------------------------|
--------1--------------1----------------------------|


--------------------------1-----1-----3-------------|
--1-----1--------------1-----1----------------------|
----------------------------------------------------|
----------------------------------------------------|


--------------------7--10-8-------------------------|
--3-------------------------------------------------|
----------------------------------------------------|
-----1--1--------------------------------1-----1----|


----------------------------------------------------|
--3-------------------------------------------------|
----------------------------------------------------|
-----1-----1--------1--1--1--1-----1.-------1--1----|


-----------------------------------------8--10------|
--3-----------------1--2--3-------------------------|
-----3----------------------------------------------|
--------1--------1-----------------------------x----|


----------------------------------------------------|
----------------------------------------------------|
----------------------------------------------------|
--1--1-----1--------1--1--1--1-----1--------1--1----|


--------------------7--10-8-------------------------|
--3-------------------------------------------------|
-----3-----------8----------------------------------|
--------1--------------------------------1-----1----|


----------------------------------------------------|
--1--1-----1--------------1--1-----1----------------|
----------------------------------------------------|
-----------------------1-----------------1-----1----|


----------------------------------------------------|
--3-------------------------------------------------|
-----3--------------6--7--8-----------8-------------|
--------1--------1--------------4--6--------1--1----|


----------------------------------------------------|
--3-------------------------------------------------|
----------------------------------------------------|
-----1-----1--------1--1--1--1-----1--------1--1----|


-----------------------10-8-------------------------|
--3-----------------10------------------------------|
-----3-----------8----------------------------------|
--------1--------------------------------1-----1----|


--8--8-----8--------------8--8-----8-----8----------|
----------------------------------------------------|
----------------------------------------------------|
-----------------------1-----------------------1----|


----------------------------------------------------|
--3-----------------1--2--3-------------------------|
-----3----------------------------------------------|
--------1--------------------------------1-----1----|


----------------------------------------------------|
--3-----------------------3-------------------------|
----------------------------------------------------|
-----1-----1--------1--1-----1-----------1-----1----|


--------------------7--10-8-------------------------|
--3-------------------------------------------------|
-----3----------------------------------------------|
--------1--------------------------------1-----1----|


--8--8-----8----------------------------------------|
--------------------------3-------------------------|
----------------------------------------------------|
--------------------1--1-----1-----1--------1--1----|


----------------------------------------------------|
--3-----------------1--2--3-------------------------|
-----3----------------------------------------------|
--------1--------------------------------1-----1----|


----------------------------------------------------|
--3-------------------------------------------------|
-----------------------------------------2--3--4----|
-----1-----1--------1--1--1--1-----1----------------|


----------------------------------------------------|
----------------------------------------------------|
--5-----5-----------5--4--3-----3-----------5--3----|
----------------------------------------------------|


----------------------------------------------------|
--3-----3-----------3-----3-----3-------------------|
-----------------------3--------------------3--4----|
----------------------------------------------------|


----------------------------------------------------|
----------------------------------------------------|
--5-----5-----------5--4--3-----3-----------5--3----|
----------------------------------------------------|


----------------------------------------------------|
--3-----3-----------3-----3-----3-------------------|
-----------------------3--------------------3--4----|
----------------------------------------------------|


----------------------------------------------------|
----------------------------------------------------|
--5-----5-----------5--5--3-----3-----------5--3----|
----------------------------------------------------|


----------------------------------------------------|
--3-----3-----------3-----3-----3-------------------|
-----------------------3--------------------5--3----|
----------------------------------------------------|


----------------------------------------------------|
----------------------------------------------------|
--5-----5-----------5--5--3-----3-----------5--3----|
----------------------------------------------------|


----------------------------------------------------|
--3-----3-----------3-----3-----3-------------------|
-----------------------3----------------------------|
----------------------------------------------------|


-----------------------------------10----8----------|
--3--------3--------1--2--3-------------------------|
----------------------------------------------------|
-----------------------------------------------1----|


----------------------------------------------------|
--------------------------3-------------------------|
----------------------------------------------------|
--1--1-----1--------1--1-----1-----1--------1--1----|


----------------------------------------------------|
--3-----------------1--2--3-------------------------|
-----3----------------------------------------------|
--------1--------------------------------1-----1----|


----------------------------------------------------|
--3-------------------------------------------------|
----------------------------------------------------|
-----1-----1--------1--1--1--1-----------1-----1----|


--------------------7--10-8-------------------------|
--3-------------------------------------------------|
-----3----------------------------------------------|
--------1--------------------------------1-----1----|


--8--8-----8--------------8--8-----8-----8----------|
----------------------------------------------------|
----------------------------------------------------|
-----------------------1-----------------------1----|


----------------------------------------------------|
--3-----------------1--2--3-------------------------|
-----3----------------------------------------------|
--------1--------------------------------1-----1----|


----------------------------------------------------|
--3-------------------------------------------------|
----------------------------------------------------|
-----1-----1--------1--1--1--1-----1--------1--1----|


--------------------7--10-8-------------------------|
--3-------------------------------------------------|
-----3----------------------------------------------|
--------1--------------------------------1-----1----|


----------------------------------------------------|
--3-------------------------------------------------|
----------------------------------------------------|
-----1-----1--------1--1--1--1-----1--1--1-----1----|


-----------------------------------------8--10------|
--3-----------------1--2--3-------------------------|
-----3-----------------------------------------8----|
--------1-------------------------------------------|


--8--8-----8--------------8.----8.------------------|
----------------------------------------------------|
----------------------------------------------------|
-----------------------1----------------------------|


--------------------7--10-8-------------------------|
--3-------------------------------------------------|
-----3----------------------------------------------|
--------1--------------------------------1.----1----|


----------------------------------------------------|
--3-------------------------------------------------|
----------------------------------------------------|
-----1-----1--------1--1--1--1-----1--1--1-----1----|


----------------------------------------------------|
--3-----------------1--2--3-------------------------|
-----3----------------------------------------------|
--------1--------1--------------------1--1-----1----|


----------------------------------------------------|
--3-----------------------------------------3-------|
----------------------------------------------------|
-----1.----1--------1--1--1--1--------1--1----------|


----------------------------------------------------|
--5-----5-----------5-----3-----3-----------3--1----|
----------------------------------------------------|
----------------------------------------------------|


----------------------------|
--1--1-----1--1--1--1--1----|
----------------------------|
----------------------------|


--2-------------------------------------------------|
----------------------------------------------------|
--------3--4--5-----5-----5-----5-----5-----5-------|
----------------------------------------------------|


----------------------------|
----------------------------|
--1--1--1--1--1--1--1--1----|
----------------------------|


--------------------------------7-------------------|
--------------------7--8--9-------------------------|
--2-----2-----2-------------------------------------|
----------------------------------------------------|


----------------------------------------------------|
--3--------0-----1--------3--3----------------------|
----------------------------------------------------|
-----1-----------------------------------1.----1----|


----------------------------------------------------|
--3-----------------------3-------------------------|
----------------------------------------------------|
-----1.----1--------1--1-----1-----------1--1--1----|


-----------------------------------------8--10------|
--3-----------------1--2--3-------------------------|
-----3-----------------------------------------8----|
--------1-------------------------------------------|


--8--8-----8--------------8--8-----8----------------|
----------------------------------------------------|
----------------------------------------------------|
-----------------------1--------------------1--1----|


--------------------7--10-8-------------------------|
--3-------------------------------------------------|
-----3----------------------------------------------|
--------1--------------------------------1.----1----|


--------------------------------------------10------|
--3--------------------------------------------10---|
-----------------------------------------8----------|
-----1.----1--------1--1--1--1----------------------|


----------------------------------------------------|
--3-----------------1--2--3-------------------------|
-----3----------------------------------------------|
--------1--------------------------------1-----1----|


----------------------------------------------------|
--3-----------------------3-----------------3-------|
-----------------------------------------3-----3----|
-----1-----1--------4--6----------------------------|


--------------------7--10-8-------------------------|
--3-------------------------------------------------|
-----3----------------------------------------------|
--------1--------------------------------1.----1----|


--8--8-----8--------------8--8-----8-----8----------|
----------------------------------------------------|
----------------------------------------------------|
-----------------------1-----------------------1----|


----------------------------------------------------|
--3-----------------1--2--3-------------------------|
-----3----------------------------------------------|
--------1--------------------------------1-----1----|


----------------------------------------------------|
--3-------------------------------------------------|
----------------------------------------------------|
-----1.----1--------1--1--1--1-----1--------1--1----|


--------------------7--10-8-------------------------|
--3-------------------------------------------------|
-----3----------------------------------------------|
--------1--------------------------------1.----1----|


--8--8-----8--------------8-----8--------8----------|
----------------------------------------------------|
----------------------------------------------------|
-----------------------------------------------1----|


-----------------------------------------8--10------|
--3-----------------1--2--3-------------------------|
-----3----------------------------------------------|
--------1--------------------------------------1----|


--8--8-----8----------------------------------------|
----------------------------------------------------|
----------------------------------------------------|
--------------------1--1--1--1--1.----1.----1--1----|


--------7-----------8-----------10------------------|
----------------------------------------------------|
--5-----------6-----------8-------------------------|
-----------------------------------------1.----1----|


----------------------------------------------------|
--------------------------------------3-------------|
----------------------------------------------------|
--1--1.----1--------1--1--1--1-----1-----1.---------|


--------7-----------8-----------10------------------|
----------------------------------------------------|
--5-----------6-----------8-------------------------|
-----------------------------------------1.----1----|


-----------------------------------------8--10------|
--------------------------3-------------------------|
-----------------------------------------------8----|
--1--1.----1--------1--1-----1----------------------|


--------7-----------8-----------10------------------|
----------------------------------------------------|
--5-----------6-----------8-------------------------|
-----------------------------------------1.----1----|


----------------------------------------------------|
-----------------------------------------3----------|
----------------------------------------------------|
--1--1.----1--------1--1--1--1----------------------|


--------7-----------8-----------10------------------|
----------------------------------------------------|
--5-----------6-----------8-------------------------|
-----------------------------------------1.----1----|


----------------------------------------------------|----------|
----------------------------------------------------|----------|
----------------------------------------------------|----------|
--1--1.----1--------1--1--1--1----------------------|--1-------|


----------------|----------------|
----------------|----------------|
----------------|----------------|
----------------|----------------|


----------------------------------------------------|
--------------------------------------------5-------|
--------------------------------------5--7-----7----|
----------------------------------------------------|


----------------------------------------------------|
--5-----5-----------5-----3-----3-----------3--1----|
----------------------------------------------------|
----------------------------------------------------|


----------------------------|
--1--1-----1--1--1--1--1----|
----------------------------|
----------------------------|


--2-------------------------------------------------|
----------------------------------------------------|
--------0--2--5-----5-----5-----5-----5-------------|
--------------------------------------------3--5----|


----------------------------------------------------|
----------------------------------------------------|
----------------------------------------------------|
--6-----6-----6-----6-----6-----6-----6--3--6-------|


--------------------------------7--------10.--------|
--------------------7--8--9-------------------------|
----------------------------------------------------|
--7-----7-----7--------------------------------1----|


--------------------8--9--10------------------------|
--3-------------------------------------------------|
-----3----------------------------------------------|
--------1--------------------------------1.----1----|


----------------------------------------------------|
--3-------------------------------------------------|
----------------------------------------------------|
-----1-----1--------1--1--1--1-----1-----1-----1----|


----------------------------------------------------|
--3-----------------1--2--3-------------------------|
-----3----------------------------------------------|
--------1--------------------------------1-----1----|


----------------------------------------------------|
--3-----------------------3-------------------------|
----------------------------------------------------|
-----1-----1--------1--1-----1-----1--------1--1----|


--------------------7--10-8-------------------------|
--3-------------------------------------------------|
-----3----------------------------------------------|
--------1--------------------------------1.----1----|


----------------------------------------------------|
--3-----------------------3-------------------------|
-----------------------------3----------------------|
-----1-----1--------1--1--------1-----1--1-----1----|


--------------------------------------8--10---------|
--3-----------------------------8--9----------------|
-----3--------------6--7--8-------------------------|
--------1--------------------------------------1----|


----------------------------------------------------|
--3-----------------------3-------------------------|
----------------------------------------------------|
-----1-----1--------1--1-----1-----1--------1--1----|


--------------------7--10-8-------------------------|
--3-------------------------------------------------|
-----3----------------------------------------------|
--------1--------------------------------1.----1----|


--8--8-----8--------------8--8-----8-----8----------|
----------------------------------------------------|
----------------------------------------------------|
-----------------------1-----------------------1----|


-----------------------------------------8--10------|
--3-----------------1--2--3--------------------3----|
-----3----------------------------------------------|
--------1-------------------------------------------|


----------------------------------------------------|
--3-----------------------3-------------------------|
----------------------------------------------------|
-----1-----1--------1--1-----1--------------1--1----|


--------------------7--10-8-------------------------|
--3-------------------------------------------------|
-----3----------------------------------------------|
--------1--------------------------------1.----1----|


--8--8-----8--------------7--8-----8----------------|
----------------------------------------------------|
----------------------------------------------------|
--------------------------------------------1--1----|


-----------------------------------------8--10------|
--3-----------------1--2--3--------------------3----|
-----3----------------------------------------------|
--------1-------------------------------------------|


-----------------------------------------10---------|
--3-----------------------3-----------------10------|
-----------------------------------------------8----|
-----1-----1-----------1-----1--1-------------------|


--------7-----------8-----------10------------------|
----------------------------------------------------|
--5-----------6-----------8-------------------------|
-----------------------------------------1.----1----|


----------------------------------------------------|
--3-------------------------------------------------|
----------------------------------------------------|
-----1.----1--------1--1--1--1-----1--------1--1----|


--------7-----------8-----------10------------------|
----------------------------------------------------|
--5-----------6-----------8-------------------------|
-----------------------------------------1.----1----|


----------------------------------------------------|
--3-------------------------------------------------|
----------------------------------------------------|
-----1.----1--------1--1--1--1-----1--1--------1----|


--------7-----------8-----------10-------10---------|
----------------------------------------------------|
--5-----------6-----------8-------------------------|
-----------------------------------------------1----|


--------------------8--9--10------------------------|
--3-------------------------------------------------|
----------------------------------------------------|
-----1.----1----------------------------------------|


--------7-----------8-----------10------------------|
----------------------------------------------------|
--5-----------6-----------8-------------------------|
-----------------------------------------1-----1----|


----------------------------------------------------|
--3-----------------------3-------------------------|
----------------------------------------------------|
-----1.----1--------1--1-----1--1-----1--------1----|


--------------------7--10-8-------------------------|
--3-------------------------------------------------|
-----3----------------------------------------------|
--------1--------------------------------1.----1----|


----------------------------------------------------|
--------------------------3-------------------------|
----------------------------------------------------|
--1--1.----1--------1--1-----1-----------1--1--1----|


-----------------------------------------8--10------|
--3-----------------1--2--3-------------------------|
-----3----------------------------------------------|
--------1--------------------------------------1----|


----------------------------------------------------|
--3-------------------------------------------------|
----------------------------------------------------|
-----1.----1--------1--1--1--1----------------------|


--------------------7--10-8-------------------------|
--3-------------------------------------------------|
-----3----------------------------------------------|
--------1--------------------------------1.----1----|


----------------------------------------------------|
--3-----------------------3-----------3-------------|
-----------------1--1--1----------------------------|
-----1-----1--------------------4--6----------------|


--------------------------------8--9--10------------|
--3-----------------1--2--3-------------------------|
-----3----------------------------------------------|
--------1--------------------------------------1----|


--------------------------------8--9--10------------|
--3-----------------1--2--3-------------------------|
----------------------------------------------------|
-----1-----1-----------------------------------1----|


--------------------7--10-8-------------------------|
--3-------------------------------------------------|
-----3----------------------------------------------|
--------1--------------------------------1.----1----|


-----------------------------------------7--8-------|
--3-----------------------3-------------------------|
----------------------------------------------------|
-----1.----1--------1--1-----1-----------------1----|


----------------------------------------------------|
--3-----------------1--2--3-------------------------|
-----3----------------------------------------------|
--------1--------------------------------------1----|


----------------------------------------------------|
--3-----------------------3--------------------1----|
--------------------------------------1--2--3-------|
-----1.----1--------1--1-----1--1-------------------|


--------------------7--10-8-------------------------|
--3-------------------------------------------------|
----------------------------------------------------|
--------1--------------------------------1.----1----|


----------------------------------------------------|
--3-----------------------3-------------------------|
----------------------------------------------------|
-----1.----1-----------1-----1--------------1--1----|


----------------------------------------------------|
--3-----------------1--2--3-------------------------|
-----3----------------------------------------------|
--------1--------------------------------1.----1----|


----------------------------------------------------|
--3-----------------------------------3-------------|
----------------------------------------------------|
-----1-----1--------1--1--1--1-----1-----------1----|


-----------------------------------------10-8-------|
--3-----------------1--2--3--------------------10---|
-----3----------------------------------------------|
--------1-------------------------------------------|


----------------------------------------------------|
--------------------------3-----------3-------------|
--------------------------------1--2----------------|
--1--1-----1--------1--1--------------------1--1----|


----------------------------------------------------|
--3-----------------1--2--3-------------------------|
-----3----------------------------------------------|
--------1--------------------------------1.----1----|


----------------------------------------------------||
--3-----------------1--2--3-------------------------||
----------------------------------------------------||
-----1-----1----------------------------------------||
Добавлено: 29.11.2013
Другие материалы по этой песне:

Страница создана 19.09.2013
http://primanota.ru/sly-and-the-family-stone/in-time-chords.htm
Привет, Гость.
Предлагаем пройти революционный курс по гитаре.
Подарок от PrimaNota.Ru, забирай!