PrimaNota.ru - самый крупный в мире бесплатный архив песенных текстов, аккордов, табулатур и нот


Slumber Party - Depression Is Best - аккорды и текст, видео

Регистрация Запомнить меня
Войти через:  Facebook Google Twitter Vk Yandex Mail.ru

Slumber Party - Depression Is Best - аккорды и текст, видео

Печатать
Просмотров: 63
Уроки эстрадного вокала в Санкт-Петербурге
Depression Is Best
Slumber Party
Song: Depression is Best
Artist: Slumber Party
Album: Psychedelicate (kill rock stars label)
 
 
Main rift
|-2----2--2--3--3--3-------------------|
|-3----3--3--0--0--0--2------2-----2---|
|-2----2--2--0--0--0--2---2-----2------|
|-0----0--0--0--0--0--2----------------|
|------------2--2--2--0----------------|
|------------3--3--3-------------------|
 
After you've done this bit a few times play this
 
|--------0--0-0-0---|
|--2-2-2-0--0-0-0-2-|
|--2-2-2-0--0-0-0-2-|
|--2-2-2-2--2-2-2-2-|
|--0-0-0-2--2-2-2-0-|
|--------0--0-0-0---|
 
I don'y know what the final chord progression towards the end of the song
is though (beginning "Rescue is best..." so if anyone can help it would
be
great (email paul@whiston6949.freeserve.co.uk)
This is my first tab submission so please forgive any errors.
 

     
Добавлено: 08.07.2013
Другие материалы по этой песне:
  • Аккорды и текст

Страница создана 08.07.2013
http://primanota.ru/slumber-party/depression-is-best-chords.htm
Привет, Гость.
Предлагаем пройти революционный курс по гитаре.
Подарок от PrimaNota.Ru, забирай!