PrimaNota.ru - самый крупный в мире бесплатный архив песенных текстов, аккордов, табулатур и нот


Slugs Revenge - Prison Song - таба, видео

Регистрация Запомнить меня
Войти через:  Facebook Google Twitter Vk Yandex Mail.ru

Slugs Revenge - Prison Song - таба, видео

Печатать
Просмотров: 29
"Prison Song" by Slug's Revenge in B minor

e|-|--------------------------------------|-implied-|-------------------|-|
B|-|--------------------------------------|---not---|-------------------|-|
G|-|--------------------------------------|--played-|-------------------|-|
D|-|---44---44---44---44---44---44---44---|-44---44-|-------------------|-|
A|-|-2----2----2----2----2----2----2----2-|----2----|-------------------|-|
E|-|--------------------------------------|---------|-------------------|-|

e|-|-------------------|--------0----------|-------------------|---------------------2-xx-2-|-|
B|-|-------------------|-0-33-0------------|-------------------|---------------------3-xx-3-|-|
G|-|-----------------2-|------------22-----|-----------------2-|---------------------4----4-|-|
D|-|---44-------22-----|----------4----4-2-|---44-------22-----|-----22-0h2-22-------4----4-|-|
A|-|-2----2-5-4----4---|-------------------|-2----2-5-4----4---|-4p2-----------5-4-2-2----2-|-|
E|-|-------------------|-------------------|-------------------|----------------------------|-|

e|-|--play--|-------2-xx-2-|-|-----------2-xx-2-|-----------------2-xx-2-|-|
B|-|--a-lot-|-------3-xx-3-|-|-----------3-xx-3-|-----------------3-xx-3-|-|
G|-|--------|-------4----4-|-|---44--44--4----4-|-----44-----44---4----4-|-|
D|-|-0h2-22-|-------4----4-|-|-----------4----4-|-0h2----2h4------4----4-|-|
A|-|--------|-5-4-2-2----2-|-|-5---4---2-2----2-|---------------2-2----2-|-|
E|-|--------|--------------|-|------------------|------------------------|-|

Bm

|Bm D G Bm|G F#m Em Em|
e|-|------------------------------------------------------------------------|-|
B|-|------------------------------------------------------------------------|-|
G|-|------------------------------------------------------------------------|-|
D|-|-------------------5-5-5555----------5-5-5555--------7h9-9-------7h9-99-|-|
A|-|-2-2-2222-5-5-5555----------2-2-2222----------7h9-99-------7h9-9--------|-|
E|-|------------------------------------------------------------------------|-|

|Bm D G Bm|G G A A|
e|-|-------------------------------------------------------------------------|-|
B|-|-------------------------------------------------------------------------|-|
G|-|-------------------------------------------------------------------------|-|
D|-|-------------------5-5-5555----------5-5-5555-5-5-5555-7-7-7777-7-7-7777-|-|
A|-|-2-2-2222-5-5-5555----------2-2-2222-------------------------------------|-|
E|-|-------------------------------------------------------------------------|-|

G F#m Bm 

e|-|-----------------------------5h7p55--------------------|-|
B|-|------------------------------------5h7p5--------------|-|
G|-|------------------------------------------6h7p66-4h6p4-|-|
D|-|-5-5-5555-4-4-4444-------------------------------------|-|
A|-|-------------------2-2-2222----------------------------|-|
E|-|-------------------------------------------------------|-|

just a fill before i repeat i believe
A 

repeat

outro
e|-|-2-5-2-----3-22/7--5h7p55-------------------------------------------2-|-|
B|-|-3-----3-5----------------5h7p5-------------------------------------3-|-|
G|-|-4------------------------------6h7p66-4h6p4------------------------4-|-|
D|-|-4-------------------------------------------5h7p4h5p4--------------4-|-|
A|-|-2-----------------------------------------------------7-5-44h5p4-2-2-|-|
E|-|----------------------------------------------------------------------|-|

if anyone has corrections lemme know. i got lazy near the end, so there might be some fills in certain spots
this is relatively all the different parts to the song.
Добавлено: 14.10.2015
Другие материалы по этой песне:
  • Аккорды и текст

Страница создана 14.10.2015
http://primanota.ru/slugs-revenge/prison-song-chords.htm
Привет, Гость.
Предлагаем пройти революционный курс по гитаре.
Подарок от PrimaNota.Ru, забирай!