PrimaNota.ru - самый крупный в мире бесплатный архив песенных текстов, аккордов, табулатур и нот


Sloy - Arms - таба, видео

Регистрация Запомнить меня
Войти через:  Facebook Google Twitter Vk Yandex Mail.ru

Sloy - Arms - таба, видео

Печатать
Просмотров: 107
Авторы музыки: Cyril Bilbeaud, Armand Gonzalez, Virginie Peitavi
Авторы текста: Armand Gonzalez
From lucky.r@usa.net Sun May  4 10:15:21 1997
Date: Tue, 01 Apr 1997 15:17:43 +0200
From: lucky 
To: guitar@olga.net
Subject: TAB:"arms" by SLOY

    [The following text is in the "iso-8859-1" character set]
    [Your display is set for the "US-ASCII" character set]
    [Some characters may be displayed incorrectly]Title: arms
Artist: sloy
Transcription:Luc REVERTER
email: lucky.r@usa.net
Comme tous les morceau de ce groupe, il est imperatif de bosser avec le CD a port?
de main...

INTRO+COUPLET (a rajouter suivant suivant l'humeur quelques notes bloqu?es apres
le SOL...)

E  +----------------------------------------------------------|
B  |----------------------------------------------------------|
G  |----------------------------------------------------------|
D  |-0-0------------------------------------------------------|
A  |6-5-2-----------------------------------------------------|
E  +7-6-3-----------------------------------------------------|


PONT AVANT LE REFRAIN

E  +-----0----------------------------------------------------|
B  |----00----------------------------------------------------|
G  |---0------------------------------------------------------|
D  |--0-------------------------------------------------------|
A  |-6--------------------------------------------------------|
E  +7---------------------------------------------------------|

REFRAIN
E  +----------------------------------------------------------|
B  |----------------------------------------------------------|
G  |----------------------------------------------------------|
D  |----------------------------------------------------------|
A  |999999777777555555555555----------------------------------|
E  +777777555555333333333333----------------------------------|


Mail:lucky.r@usa.net
Добавлено: 30.03.2012
Вам также может быть интересно:
Другие материалы по этой песне:
  • Аккорды и текст

Страница создана 30.03.2012
http://primanota.ru/sloy/arms-chords.htm
Привет, Гость.
Предлагаем пройти революционный курс по гитаре.
Подарок от PrimaNota.Ru, забирай!