PrimaNota.ru - самый крупный в мире бесплатный архив песенных текстов, аккордов, табулатур и нот


Slowdive - Painting Lost - таба, видео

Регистрация Запомнить меня
Войти через:  Facebook Google Twitter Vk Yandex Mail.ru

Slowdive - Painting Lost - таба, видео

Печатать
Просмотров: 46
-------------------------------------------------------------------------------
                             Painting / Lost - Slowdive
-------------------------------------------------------------------------------
Tabbed by: weydenn23
E-mail: weydenn23@gmail.com

Tuning: Standard
Key: A

First part:
e|-------2------------------2----------------------------------------------------|
B|-2-3-5-2-5---5----5-----5---5---5---3--3---3--------3---5---3---3---2-----2----|
G|-2-2-2-2-2---2----2-----2---2---2---2--2---2--------2---2---2---2---2-----2----|
D|-2-2-2-2-2---2----2-----2-------0------0------------0-----------2---2-----2----|
A|-0-----0---0----0-----------------------------------------------0-------0------|
E|-------------------------------------------------------------------------------|

Second part starts same but have different ending

e|-------2------------------2----------------------------------------------------|
B|-2-3-5-2-5---5----5-----5---5---5---3--3---3--------3---5---3---3---2-----2----|
G|-2-2-2-2-2---2----2-----2---2---2---2--2---2--------2---2---2---2---2-----2----|
D|-2-2-2-2-2---2----2-----2-------0------0------------0-----------2---2-----2----|
A|-0-----0---0----0-----------------------------------------------0-------0------|
E|-------------------------------------------------------------------------------|

e|-------------------------------------------------------------------------------|
B|--2-3-2----2-0----0---------0--3---3----2----2---------------------------------|
G|--2---2----1-1----1---------1--1---2----2----2---------------------------------|
D|--2---2----2-2----2---------2-----------2----2---------------------------------|
A|--0--------2----2-----------2---------------0----------------------------------|
E|-------------------------------------------------------------------------------|

Добавлено: 25.11.2015
Вам также может быть интересно:
Другие материалы по этой песне:
  • Аккорды и текст

Страница создана 25.11.2015
http://primanota.ru/slowdive/painting-lost-chords.htm
Привет, Гость.
Предлагаем пройти революционный курс по гитаре.
Подарок от PrimaNota.Ru, забирай!