PrimaNota.ru - самый крупный в мире бесплатный архив песенных текстов, аккордов, табулатур и нот


Slow Roosevelt - Boys Lie Girls Steal - таба, видео

Регистрация Запомнить меня
Войти через:  Facebook Google Twitter Vk Yandex Mail.ru

Slow Roosevelt - Boys Lie Girls Steal - таба, видео

Печатать
Просмотров: 127
-------------------------------------------------------------------------------
                        Boys Lie Girls Steal - Slow Roosevelt
-------------------------------------------------------------------------------
Tabbed by: Slade532
E-mail: Tommyhdz532@Gmail.com
Featured on the "Broly: The Legendary Super Saiyan" Soundtrack :)

Tuning: Drop D
                                 Intro
e|-x-x-x-x-x-x-x------------------------------------------------------------------------------|
B|-x-x-x-x-x-x-x------------------------------------------------------------------------------|
G|-6-6-6-6-6-6-6-------------------------------6-6-5-5-5--5--5-5-6-6-6--6---------------------|
D|------------------4-4-4-4--4--4-4-4-4-4--4---4-4-4-4-4--4--4-4-4-4-4--4---------------------|
A|------------------4-4-4-4--4--4-4-4-4-4--4---4-4-4-4-4--4--4-4-4-4-4--4---------------------|
D|------------------4-4-4-4--4--4-4-4-4-4--4---4-4-4-4-4--4--4-4-4-4-4--4---------------------|
                                    
e|--------------------------------------------------------------------------------------------|
B|--------------------------------------------------------------------------------------------|
G|-6-6-6-6-6--6--6-6-6-6-6--6--6-6-5-5-5--5--5-5-6-6------------------------------------------|
D|-4-4-4-4-4--4--4-4-4-4-4--4--4-4-4-4-4--4--4-4-4-4------------------------------------------|
A|-4-4-4-4-4--4--4-4-4-4-4--4--4-4-4-4-4--4--4-4-4-4--x-x-x-x---------------------------------|
D|-4-4-4-4-4--4--4-4-4-4-4--4--4-4-4-4-4--4--4-4-4-4--x-x-x-x--12\----------------------------|

                                Interlude
e|--------------------------------------------------------------------------------------------|
B|--------------------------------------------------------------------------------------------|
G|--------------------------------------------------------------------------------------------|
D|-2/4-4-4-4\2--2-2/4-4-2------2/4-4-4-4\2--2/4-----------------------------------------------|
A|-2/4-4-4-4\2--2-2/4-4-2--x3--2/4-4-4-4\2--2/4---x-x-x-x-------------------------------------|
D|-2/4-4-4-4\2--2-2-4-4-2------2/4-4-4-4\2--2/4---x-x-x-x--12\--------------------------------|

             Verse                                   Pre-Chorus
e|----------------------------------|---------------------------------------------------------|
B|----------------------------------|--------------x-x-x-x-x-x-x-x----------------------------|
G|----------------------------------|--------------x-x-x-x-x-x-x-x----------------------------|
D|-2/4-4-4-4\2--2-2/4-4-2-----------|-2/4-4-4-4\2--2-2-2-2-2-2-2-2----------------------------|
A|-2/4-4-4-4\2--2-2/4-4-2--x3-------|-2/4-4-4-4\2--2-2-2-2-2-2-2-2----------------------------|
D|-2/4-4-4-4\2--2-2/4-4-2-----------|-2/4-4-4-4\2--2-2-2-2-2-2-2-2----------------------------|

             Chorus                                     
e|----------------------------------|---------------------------------------------------------|
B|----------------------------------|---------------------------------------------------------|
G|----------------------------------|----------------------------------------------------7----|
D|-4-4-4-4-4/7-7-7-7/9-9-9\2-2-2----|-2/4-4-4-x-x-x-x--2/4-4-4-x-x-x-x--2/4-4-4-x-x-x-x--6----|
A|-4-4-4-4-4/7-7-7-7/9-9-9\2-2-2--x4|-2/4-4-4-x-x-x-x--2/4-4-4-x-x-x-x--2/4-4-4-x-x-x-x--6--x2|
D|-4-4-4-4-4/7-7-7-7/9-9-9\2-2-2----|-2/4-4-4-x-x-x-x--2/4-4-4-x-x-x-x--2/4-4-4-x-x-x-x-------|
   
             Verse                                   Chorus
e|----------------------------|---------------------------------------------------------------|
B|----------------------------|---------------------------------------------------------------|
G|----------------------------|---------------------------------------------------------------|
D|-2/4-4-4-4\2--2-2/4-4-2-----|-4-4-4-4-4/7-7-7-7\9-9-9\2-2-2---------------------------------|
A|-2/4-4-4-4\2--2-2/4-4-2--x8-|-4-4-4-4-4/7-7-7-7\9-9-9\2-2-2--x4-----------------------------|
D|-2/4-4-4-4\2--2-2/4-4-2-----|-4-4-4-4-4/7-7-7-7\9-9-9\2-2-2---------------------------------|

             Bridge
e|----------------------------|---------------------------------------------------------------|
B|----------------------------|---------------------------------------------------------------|
G|----------------------------|-6--9--6--9--6-4-6--9--6--9--6-4-------------------------------|
D|-4--7--4--7--4-2------------|-4--7--4--7--4-2-4--7--4--7--4-2-------------------------------|
A|-4--7--4--7--4-2--x2--------|-4--7--4--7--4-2-4--7--4--7--4-2--x2---------------------------|
D|-4--7--4--7--4-2------------|-4--7--4--7--4-2-4--7--4--7--4-2-------------------------------|

e|--------------------------------------------------------------------------------------------|
B|--------------------------------------------------------------------------------------------|
G|-14-14-14-14--14--14-14-13-13-13--13--13-13-14-14-14--14--14-14-13-13-13--------------------|
D|-12-12-12-12--12--12-12-12-12-12--12--12-12-12-12-12--12--12-12-12-12-12--------------------|
A|-12-12-12-12--12--12-12-12-12-12--12--12-12-12-12-12--12--12-12-12-12-12--------------------|
D|-12-12-12-12--12--12-12-12-12-12--12--12-12-12-12-12--12--12-12-12-12-12--------------------|

                                       Outro
e|--------------------------------------------------------------------------------------------|
B|--------------------------------------------------------------------------------------------|
G|--------------------------------------------------------------------------------------------|
D|-0--0--0-0--0--0--0-0-0--0--0--0-0--0--0----------------------------------------------------|
A|-0--0--0-0--0--0--0-0-0--0--0--0-0--0--0----------------------------------------------------|
D|-0--0--0-0--0--0--0-0-0--0--0--0-0--0--0-0-0-0-0-0------------------------------------------|

************************************

| /   slide up
| \   slide down
| h   hammer-on
| p   pull-off
| ~   vibrato
| +   harmonic
| x   Mute note
| b   Bend
| pb  Pre-bend
| br  Bend release
| pbr Pre-bend release
| brb Bend release bend

************************************
Добавлено: 31.07.2015
Другие материалы по этой песне:
  • Аккорды и текст

Страница создана 31.07.2015
http://primanota.ru/slow-roosevelt/boys-lie-girls-steal-chords.htm
Привет, Гость.
Предлагаем пройти революционный курс по гитаре.
Подарок от PrimaNota.Ru, забирай!