PrimaNota.ru - самый крупный в мире бесплатный архив песенных текстов, аккордов, табулатур и нот


Slow Magic - Girls - таба, видео

Регистрация Запомнить меня
Войти через:  Facebook Google Twitter Vk Yandex Mail.ru

Slow Magic - Girls - таба, видео

Печатать
Просмотров: 42
-------------------------------------------------------------------------------
                             Girls - Slow Magic
-------------------------------------------------------------------------------

Tabbed by: Skrabazar

Tuning: Standart

https://www.youtube.com/watch?v=8cWcq9g6b2w

Guitar part starts at 0:57 and repeats the whole song:

e|---------------------------------------------------------------------------|
B|---------------------------------------------------------------------------|
G|-16-16-16-16-16--13---------------------------13---------------------------|
D|--------------------16-14----------14-16--14-------------------------------|
A|---------------------------16-14-------------------------------------------|
E|---------------------------------------------------------------------------|

e|---------------------------------------------------------------------------|
B|---------------------------------------------------------------------------|
G|-16-16-16-16-16--13---------------------13---------------------------------|
D|--------------------16-14---------14-16----16-14---------------------------|
A|---------------------------16-14-------------------------------------------|
E|---------------------------------------------------------------------------|





e|---------------------------------------------------------------------------|
B|---------------------------------------------------------------------------|
G|-16-16-16-16-16--13------------------------13------------------------------|
D|--------------------16-14------------14-16---------------------------------|
A|---------------------------16-14-16----------------------------------------|
E|---------------------------------------------------------------------------|


e|---------------------------------------------------------------------------|
B|---------------------------------------------------------------------------|
G|-16-16-16-16-16--13---------------------13---------------------------------|
D|--------------------16-14---------14-16----16-14---------------------------|
A|---------------------------16-14-------------------------------------------|
E|---------------------------------------------------------------------------|
Добавлено: 25.11.2015
Другие материалы по этой песне:
  • Аккорды и текст

Страница создана 25.11.2015
http://primanota.ru/slow-magic/girls-chords.htm
Привет, Гость.
Предлагаем пройти революционный курс по гитаре.
Подарок от PrimaNota.Ru, забирай!