PrimaNota.ru - самый крупный в мире бесплатный архив песенных текстов, аккордов, табулатур и нот


Slow Club - Never Looking Back - таба, видео

Регистрация Запомнить меня
Войти через:  Facebook Google Twitter Vk Yandex Mail.ru

Slow Club - Never Looking Back - таба, видео

Печатать
Просмотров: 50
-------------------------------------------------------------------------------
                             Never Looking Back - Slow Club
-------------------------------------------------------------------------------
Tabbed by: Gabriel M.
E-mail: N/A

So this is what I have so far so help me, help you. Lets correct it so we can have 
the best tab possible.
This version is from this video: 

http://www.youtube.com/watch?v=nwuRzR-Gfv4

You need to find the timing, I just gave you the chord with the melody's in between.

Please send a message if you think something is wrong so I can correct.
 
Good Luck and buy the LP's!  


Tuning: Half Step Down


Intro Part:
D#|--0--0------------2-2----------2-2-----------0-0----------------|-------------------|
A#|--2--2------------3-3----------3-3-----------2-2----------------|-------------------|
F#|--2--2------------4-4----------4-4-----------2-2----------------|-------------------|
C#|--2--2------------4-4----------4-4-----------2-2----------------|-------------------|
G#|--0--0------4-2---2-2--------2-2-2--4-2-0-0--0-0--/9-7-4-2-0----|-------------------|
D#|--------0-2------------0-2-5------------------------------------|-------------------|

Versus: 

D#|--0--0------------2-2----------2-2-----------0-0-----------------------------------|
A#|--2--2------------3-3----------3-3-----------2-2-----------------------------------|
F#|--2--2------------4-4----------4-4-----------2-2-----------------------------------|
C#|--2--2------------4-4----------4-4-----------2-2-----------------------------------|
G#|--0--0------4-2---2-2--------2-2-2--4-2-0-0--0-0------4-2--------------------------|
D#|--------0-2------------0-2-5----------------------0-2------------------------------|

D#|--0--0------------2-2----------2-2-----------0-0-----------------------------------|
A#|--2--2------------3-3----------3-3-----------2-2-----------------------------------|
F#|--2--2------------4-4----------4-4-----------2-2-----------------------------------|
C#|--2--2------------4-4----------4-4-----------2-2-----------------------------------|
G#|--0--0------4-2---2-2--------2-2-2--4-2-0-0--0-0--/9-7-4-2-0-----------------------|
D#|--------0-2------------0-2-5-------------------------------------------------------|

D#|--0--0------------2-2----------2-2-----------0-0-----------------------------------|
A#|--2--2------------3-3----------3-3-----------2-2-----------------------------------|
F#|--2--2------------4-4----------4-4-----------2-2-----------------------------------|
C#|--2--2------------4-4----------4-4-----------2-2-----------------------------------|
G#|--0--0------4-2---2-2--------2-2-2--4-2-0-0--0-0------4-2--------------------------|
D#|--------0-2------------0-2-5----------------------0-2------------------------------|

D#|--0--0------------2-2----------2-2-----------0-0----------0-0----------------------|
A#|--2--2------------3-3----------3-3-----------2-2----------2-2----------------------|
F#|--2--2------------4-4----------4-4-----------2-2----------2-2----------------------|
C#|--2--2------------4-4----------4-4-----------2-2----------2-2----------------------|
G#|--0--0------4-2---2-2--------2-2-2--4-2-0-0--0-0------4-2-0-0----------------------|
D#|--------0-2------------0-2-5----------------------0-2------------------------------|


Chorus:

D#|--12--10--9--7--9--9---9--9---9---9---5-5--5-5--7-9-7--5-5-----------3-3-----------|
A#|---8--8---8--8--10-10--10-10--10--10--7-7--4-4--6-6-6--2-2-----------4-4-----------|
F#|---9--9---9--9--11-11--11-11--11--11--7-7--7-7--7-7-7--2-2-----------5-5-----------|
C#|----------------11-11--11-11--11--11--7-7--7-7---------2-2-----------5-5-----------|
G#|----------------9--9---8--8---7---7---5-5--5-5---------0-0------4-2--3-3-----------|
D#|------------------------------------------------------------0-2--------------------|

D#|----------2-2-----------0-0----------0-0-------------------------------------------|
A#|----------3-3-----------2-2----------2-2-------------------------------------------|
F#|----------4-4-----------2-2----------2-2-------------------------------------------|
C#|----------4-4-----------2-2----------2-2-------------------------------------------|
G#|--------2-2-2--4-2-0-0--0-0------4-2-0-0-------------------------------------------|
D#|--0-2-5----------------------0-2---------------------------------------------------|



D#|-----------3-3----------2-2----------0-0-------------------------------------------|
A#|-----------4-4----------3-3----------2-2-------------------------------------------|
F#|-----------5-5----------4-4----------2-2-------------------------------------------|
C#|-----------5-5----------4-4----------2-2-------------------------------------------|
G#|-------4-2-3-3--------2-2-2-4-2-0-0--0-0-----/7-9-12-9-12--------------------------|
D#|---0-2----------0-2-5--------------------------------------------------------------|


D#|--0--0------------2-2--------2-2-2-2-----------0-0---------------------------------|
A#|--2--2------------3-3--------3-3-3-3-----------2-2---------------------------------|
F#|--2--2------------4-4--------4-4-4-4-----------2-2---------------------------------|
C#|--2--2------------4-4--------4-4-4-4-----------2-2---------------------------------|
G#|--0--0------4-2---2-2--------2-2-2-2--4-2-0-0--0-0---------------------------------|
D#|--------0-2------------------------------------------------------------------------|

Chorus:

D#|--12--10--9--7--9--9---9--9---9---9---5-5--5-5--7-9-7--5-5-----------3-3-----------|
A#|---8--8---8--8--10-10--10-10--10--10--7-7--4-4--6-6-6--2-2-----------4-4-----------|
F#|---9--9---9--9--11-11--11-11--11--11--7-7--7-7--7-7-7--2-2-----------5-5-----------|
C#|----------------11-11--11-11--11--11--7-7--7-7---------2-2-----------5-5-----------|
G#|----------------9--9---8--8---7---7---5-5--5-5---------0-0------4-2--3-3-----------|
D#|------------------------------------------------------------0-2--------------------|


D#|--------2-2------0----------0-0---------2-2-----2-2-----0-0------------------------|
A#|---2-2--3-3--2-2-2----------2-2---------3-2-2-2-3-3-2-2-2-2------------------------|
F#|---1-1--4-4--1-1-2----------2-2---------4-4-1-1-4-4-1-1-2-2------------------------|
C#|---2-2--4-4--2-2-2----------2-2---------4-4-2-2-4-4-2-2-2-2------------------------|
G#|---2-2--2-2--2-2-0------4-2-0-0-----4-2-2-2-2-2-2-2-2-2-0-0------------------------|
D#|---0-0-------0-0----0-2---------0-2---------0-0-----0-0----------------------------|

Bridge: 

D#|--2--4--2-2-2--0-0-0--2-4--2-2-2---------------------------------------------------|
A#|--3--5--3-3-3--2-2-2--3-5--3-3-3---2-2--4-5-5-2------------------------------------|
F#|--4--6--2-2-2--2-2-2--4-6--2-2-2---1-1--3-4-3-1------------------------------------|
C#|--4--6---------2-2-2--4-6----------2-2--4-5-4-2------------------------------------|
G#|--2--4---------0-0-0--2-4----------2-2--4-5-4-2------------------------------------|
D#|-----------------------------------------------------------------------------------|


Ending:

D#|---0-0-2-2---------0-0-------------------------------------------------------------|
A#|---2-2-3-3---------2-2-------------------------------------------------------------|
F#|---2-2-4-4---------2-2-------------------------------------------------------------|
C#|---2-2-4-4---------2-2-------------------------------------------------------------|
G#|---0-0-2-2-4-2-0-0-0-0-------------------------------------------------------------|
D#|-----------------------------------------------------------------------------------|

D#|-9--9---9--9---9---9---5-5--5-5--7-9-7--5-5----------------------------------------|
A#|-10-10--10-10--10--10--7-7--4-4--6-6-6--2-2----------------------------------------|
F#|-11-11--11-11--11--11--7-7--7-7--7-7-7--2-2----------------------------------------|
C#|-11-11--11-11--11--11--7-7--7-7---------2-2----------------------------------------|
G#|-9--9---8--8---7---7---5-5--5-5---------0-0----------------------------------------|
D#|-----------------------------------------------------------------------------------|


Keep On Rocking! 

************************************

| /   slide up
| \   slide down
| h   hammer-on
| p   pull-off
| ~   vibrato
| +   harmonic
| x   Mute note
| b   Bend
| pb  Pre-bend
| br  Bend release
| pbr Pre-bend release
| brb Bend release bend

************************************
Добавлено: 08.01.2014
Другие материалы по этой песне:
  • Аккорды и текст

Страница создана 08.01.2014
http://primanota.ru/slow-club/never-looking-back-chords.htm
Привет, Гость.
Предлагаем пройти революционный курс по гитаре.
Подарок от PrimaNota.Ru, забирай!