PrimaNota.ru - самый крупный в мире бесплатный архив песенных текстов, аккордов, табулатур и нот


Slough Feg - The Spinward Marches Return - таба, видео

Регистрация Запомнить меня
Войти через:  Facebook Google Twitter Vk Yandex Mail.ru

Slough Feg - The Spinward Marches Return - таба, видео

Печатать
Просмотров: 107
The Spinward Marches [Return]

As recorded by The Lord Weird Slough Feg

(From the 2003 Traveller)

Tabbed by ScreamOfSilence


Tuning: (C# G# C# F# Bb D#)

For those who don't understand how to tune I show you an example below.

The E in Standard tuning is now on the 3th position of your fretboard and
the others are now on the 1th position respectively.

D#  |------------1-E-----------------|
Bb  |------------1-B-----------------|
F#  |------------1-G-----------------|
C#  |------------1-D-----------------|
G#  |------------1-A-----------------|
C#  |------------3-E-----------------|






G1
|----------------------------------------------------------|
|----------------------------------------------------------|
|----------------------------------------------------------|
|-8----------8---------8---------8---------8-10-11-10-6----|
|-8---8-8-8--8--8-8-8--8--8-8-8--8--8-8-8--8-10-11-10-6----|
|-8---8-8-8--8--8-8-8--8--8-8-8--8--8-8-8--8-10-11-10-6----|


G1
|------------------------------------------------|
|------------------------------------------------|
|------------------------------------------------|
|-8----------8---------8---------8---------8-----|
|-8---8-8-8--8--8-8-8--8--8-8-8--8--8-8-8--8-----|
|-8---8-8-8--8--8-8-8--8--8-8-8--8--8-8-8--8-----|

G1
|---------------------------------------------------|
|---------------------------------------------------|
|---------------------------------------------------|
|--------8---------8-10-11-10-6--8----------8-------|
|-8-8-8--8--8-8-8--8-10-11-10-6--8---8-8-8--8--8-8-8|
|-8-8-8--8--8-8-8--8-10-11-10-6--8---8-8-8--8--8-8-8|
G2
|---------------------------------------------------|
|---------------------------------------------------|
|---------------------------------------------------|
|---------------------------------------------------|
|------------------4--6-8---6-9--8------------------|
|---------------------------------------------------|





G1
|--------------------------------------------------------|
|--------------------------------------------------------|
|-8---------8---------8---------8---------8-10-11-10-6-8-|
|-8--8-8-8--8--8-8-8--8--8-8-8--8--8-8-8--8-10-11-10-6-8-|
|-6--6-6-6--6--6-6-6--6--6-6-6--6--6-6-6--6-8--9--8--4-6-|
|--------------------------------------------------------|


G1
|------------------|
|------------------|
|---------8--------|
|--8-8-8--8--8-8-8-|
|--6-6-6--6--6-6-6-|
|------------------|

G1
|----------------------------------------------------------|
|----------------------------------------------------------|
|----------------------------------------------------------|
|-8----------8---------8---------8---------8-10-11-10-6-8--|
|-8---8-8-8--8--8-8-8--8--8-8-8--8--8-8-8--8-10-11-10-6-8--|
|-8---8-8-8--8--8-8-8--8--8-8-8--8--8-8-8--8-10-11-10-6-8--|
G2
|---------------------------------------------------------|
|---------------------------------------------------------|
|---------------------------------------------------------|
|---------------------------------------------------------|
|------------------------------------------4--6-8---6-9-8-|
|---------------------------------------------------------|

G1
|--------------------|
|--------------------|
|--------------------|
|-----------8--------|
|----8-8-8--8--8-8-8-|
|----8-8-8--8--8-8-8-|




Play this part 2 times

G1
|-------------------------------------------------|
|-------------------------------------------------|
|-------------------------------------------------|
|-3---3-3-3--3---3-3-3--3---3-3-3-----------------|
|-3---3-3-3--3---3-3-3--3---3-3-3-----------------|
|-3---3-3-3--3---3-3-3--3---3-3-3---/6~~--5~~--1--|
G2
|-------------------------------------------------|
|---16b18r16b18r16b18r16b18r16b18r16b18r16b18r16~~|
|-------------------------------------------------|
|-------------------------------------------------|
|-------------------------------------------------|
|-------------------------------------------------|

Play this part 2 times

G1
|-------------------------------------------------|
|-------------------------------------------------|
|-------------------------------------------------|
|-3---3-3-3--3---3-3-3--3---3-3-3-----------------|
|-3---3-3-3--3---3-3-3--3---3-3-3-----------------|
|-3---3-3-3--3---3-3-3--3---3-3-3---/6~~--5~~--1--|
G2
|---18b20r18b20r18b20r18b20r18b20r18b20r18b20r18--|
|-------------------------------------------------|
|-------------------------------------------------|
|-------------------------------------------------|
|-------------------------------------------------|
|-------------------------------------------------|





G1
|---------------------------------------------------------|
|---------------------------------------------------------|
|---------------------------------------------------------|
|-8----------8---------8---------8---------8-10-11-10-6-8-|
|-8---8-8-8--8--8-8-8--8--8-8-8--8--8-8-8--8-10-11-10-6-8-|
|-8---8-8-8--8--8-8-8--8--8-8-8--8--8-8-8--8-10-11-10-6-8-|
G2
|---------------------------------------------------------|
|---------------------------------------------------------|
|---------------------------------------------------------|
|---------------------------------------------------------|
|------------------------------------------4--6-8---6-9-8-|
|---------------------------------------------------------|



************************************

| /   slide up
| \   slide down
| h   hammer-on
| p   pull-off
| ~   vibrato
| +   harmonic
| x   Mute note
| b   Bend
| pb  Pre-bend
| br  Bend release
| pbr Pre-bend release
| brb Bend release bend

************************************
Добавлено: 16.07.2015
Вам также может быть интересно:
Другие материалы по этой песне:
  • Аккорды и текст

Страница создана 16.07.2015
http://primanota.ru/slough-feg/spinward-marches-return-chords.htm
Привет, Гость.
Предлагаем пройти революционный курс по гитаре.
Подарок от PrimaNota.Ru, забирай!