PrimaNota.ru - самый крупный в мире бесплатный архив песенных текстов, аккордов, табулатур и нот


Slough Feg - Spinward Marches - таба, видео

Регистрация Запомнить меня
Войти через:  Facebook Google Twitter Vk Yandex Mail.ru

Slough Feg - Spinward Marches - таба, видео

Печатать
Просмотров: 150
The Spinward Marches

As recorded by The Lord Weird Slough Feg

(From the 2003 Traveller)

Tabbed by ScreamOfSilence


Tuning: (C# G# C# F# Bb D#)

For those who don't understand how to tune I show you an example below.

The E in Standard tuning is now on the 3th position of your fretboard
and the others are now on the 1th position respectively.

D#  |------------1-E-----------------|
Bb  |------------1-B-----------------|
F#  |------------1-G-----------------|
C#  |------------1-D-----------------|
G#  |------------1-A-----------------|
C#  |------------3-E-----------------|






G1
|--------------------------------------------------------------|
|--------------------------------------------------------------|
|--------------------------------------------------------------|
|-7----------7---------7---------7---------7--9-10-9-5---------|
|-7---7-7-7--7--7-7-7--7--7-7-7--7--7-7-7--7--9-10-9-5---------|
|-7---7-7-7--7--7-7-7--7--7-7-7--7--7-7-7--7--9-10-9-5---------|


G1
|-------------------------------------------------|
|-------------------------------------------------|
|-------------------------------------------------|
|-7----------7---------7--------7--------7--------|
|-7---7-7-7--7--7-7-7--7--7-7-7-7--7-7-7-7--------|
|-7---7-7-7--7--7-7-7--7--7-7-7-7--7-7-7-7--------|


G1
|--------------------------------------------------|
|--------------------------------------------------|
|--------------------------------------------------|
|--------7---------7--9-10-9-5--7----------7-------|
|-7-7-7--7--7-7-7--7--9-10-9-5--7---7-7-7--7--7-7-7|
|-7-7-7--7--7-7-7--7--9-10-9-5--7---7-7-7--7--7-7-7|
G2
|--------------------------------------------------|
|--------------------------------------------------|
|--------------------------------------------------|
|--------------------------------------------------|
|--------------------------5-8-7-------------------|
|------------------7--9-10-------------------------|





G1
|-------------------------------------------------------|
|-------------------------------------------------------|
|-7---------7---------7---------7---------7--9-10-9-5-7-|
|-7--7-7-7--7--7-7-7--7--7-7-7--7--7-7-7--7--9-10-9-5-7-|
|-5--5-5-5--5--5-5-5--5--5-5-5--5--5-5-5--5--7--8-7-3-5-|
|-------------------------------------------------------|
G2
|-------------------------------------------------------|
|-------------------------------------------------------|
|-------------------------------------------------------|
|-------------------------------------------------------|
|------------------------------------------5--7-8-7-3-5-|
|-------------------------------------------------------|

G1
|------------------|
|------------------|
|---------7--------|
|--7-7-7--7--7-7-7-|
|--5-5-5--5--5-5-5-|
|------------------|

G1
|--------------------------------------------------------------|
|--------------------------------------------------------------|
|--------------------------------------------------------------|
|-7----------7---------7---------7---------7--9-10-9-5--7------|
|-7---7-7-7--7--7-7-7--7--7-7-7--7--7-7-7--7--9-10-9-5--7------|
|-7---7-7-7--7--7-7-7--7--7-7-7--7--7-7-7--7--9-10-9-5--7------|
G2
|--------------------------------------------------------------|
|--------------------------------------------------------------|
|--------------------------------------------------------------|
|--------------------------------------------------------------|
|------------------------------------------3--5-7--5-8-7~~-----|
|--------------------------------------------------------------|

G1
|--------------------|
|--------------------|
|--------------------|
|-----------7--------|
|----7-7-7--7--7-7-7-|
|----7-7-7--7--7-7-7-|




Play this part 4 times

G1
|-------------------------------------------------|
|-------------------------------------------------|
|-------------------------------------------------|
|-2---2-2-2--2---2-2-2--2---2-2-2-----------------|
|-2---2-2-2--2---2-2-2--2---2-2-2-----------------|
|-2---2-2-2--2---2-2-2--2---2-2-2---/5~~--4~~--0--|
G2
|-------------------------------------------------|
|------------------16b18r16~~---------------------|
|-------------------------------------------------|
|-------------------------------------------------|
|-------------------------------------------------|
|-------------------------------------------------|



G1
|--------------------------------------------------------------|
|--------------------------------------------------------------|
|--------------------------------------------------------------|
|-7----------7---------7---------7---------7--9-10-9-5--7------|
|-7---7-7-7--7--7-7-7--7--7-7-7--7--7-7-7--7--9-10-9-5--7------|
|-7---7-7-7--7--7-7-7--7--7-7-7--7--7-7-7--7--9-10-9-5--7------|
G2
|--------------------------------------------------------------|
|--------------------------------------------------------------|
|--------------------------------------------------------------|
|--------------------------------------------------------------|
|------------------------------------------3--5-7--5-8--7~~----|
|--------------------------------------------------------------|



************************************

| /   slide up
| \   slide down
| h   hammer-on
| p   pull-off
| ~   vibrato
| +   harmonic
| x   Mute note
| b   Bend
| pb  Pre-bend
| br  Bend release
| pbr Pre-bend release
| brb Bend release bend

************************************
Добавлено: 16.07.2015
Другие материалы по этой песне:

Страница создана 23.04.2012
http://primanota.ru/slough-feg/spinward-marches-chords.htm
Привет, Гость.
Предлагаем пройти революционный курс по гитаре.
Подарок от PrimaNota.Ru, забирай!