PrimaNota.ru - самый крупный в мире бесплатный архив песенных текстов, аккордов, табулатур и нот


Slough Feg - Beast In The Broch - таба, видео

Регистрация Запомнить меня
Войти через:  Facebook Google Twitter Vk Yandex Mail.ru

Slough Feg - Beast In The Broch - таба, видео

Печатать
Просмотров: 120
Beast in the Broch

As recorded by The Lord Weird Slough Feg

(From the 2000 Down Among the Deadmen)

Tabbed by ScreamOfSilence


Tuning: (E A D G B E)



G1 Play 2 times
|------------------------------------------------|
|-------------3----------------------------------|
|-------------2----------------------------------|
|-3-3-2h3p2---0----------------------------------|
|-----------3------------------------------------|
|------------------------------------------------|


G1
|------------------------------------------------|
|-------------------------3----------------------|
|-------------------------2----------------------|
|-3-3-2h3p2---5-3-2-----2-0----------------------|
|-----------3-------0-3--------------------------|
|------------------------------------------------|



G1 Play 2 times
|------------------------------------------------|
|-------------3----------------------------------|
|-------------2----------------------------------|
|-3-3-2h3p2---0----------------------------------|
|-----------3------------------------------------|
|------------------------------------------------|
G2 
|------------------------------------------------|
|-------------3----------------------------------|
|-------------2----------------------------------|
|-3-3-2h3p2---0----------------------------------|
|-----------3------------------------------------|
|------------------------------------------------|





G1 & G2
|------------------------------------------------|
|------------------------------------------------|
|---------------------------2--------------------|
|-3-3-2h3p2---5-3-2-----2---2--------------------|
|-----------3-------0-3-----0--------------------|
|------------------------------------------------|


G1 & G2
|------------------------------------------------|
|------------------------------------------------|
|---------2------------2------------------------2|
|-2-2--2--2----2-2--2--2----2-2-----------------2|
|-0-0--0--0----0-0--0--0----0-0--3-3-2h3p2------0|
|------------------------------------------3-----|


G1 & G2
|------------------------------------------------|
|------------------------------------------------|
|---------2------------2------------------------2|
|-2-2--2--2----2-2--2--2----2-2-----------------2|
|-0-0--0--0----0-0--0--0----0-0--3-3-2h3p2------0|
|------------------------------------------3-----|

G1 & G2
|-------------------------------|
|-------------------------------|
|---------2------------2--------|
|-2-2--2--2----2-2--2--2----2-2-|
|-0-0--0--0----0-0--0--0----0-0-|
|-------------------------------|


G1
|------------------------------------------------|
|---------------------------3--------------------|
|---------------------------2--------------------|
|-------------0---------2---0--------------------|
|-3-3-2h3p2-----3-2-0-3--------------------------|
|-----------3------------------------------------|
G2
|------------------------------------------------|
|-----------------------5---6--------------------|
|---------------------5-----7--------------------|
|-------------0-----7----------------------------|
|-3-3-2h3p2-----3-2------------------------------|
|-----------3------------------------------------|









G1 Play 2 times
|------------------------------------------------|
|-------------3----------------------------------|
|-------------2----------------------------------|
|-3-3-2h3p2---0----------------------------------|
|-----------3------------------------------------|
|------------------------------------------------|
G2
|------------------------------------------------|
|-6-6-5h6p5---6----------------------------------|
|-----------5-7----------------------------------|
|------------------------------------------------|
|------------------------------------------------|
|------------------------------------------------|



G1
|------------------------------------------------|
|--------------------------3---------------------|
|--------------------------2---------------------|
|-3-3-2h3p2---5-3-2-----2--0---------------------|
|-----------3-------0-3--------------------------|
|------------------------------------------------|
G2
|------------------------------------------------|
|-6-6-5h6p5---8-6-5-----5--6---------------------|
|-----------5---------5----7---------------------|
|-------------------7----------------------------|
|------------------------------------------------|
|------------------------------------------------|


G1 Play 2 times
|------------------------------------------------|
|-------------3----------------------------------|
|-------------2----------------------------------|
|-3-3-2h3p2---0----------------------------------|
|-----------3------------------------------------|
|------------------------------------------------|
G2
|------------------------------------------------|
|-6-6-5h6p5---6----------------------------------|
|-----------5-7----------------------------------|
|------------------------------------------------|
|------------------------------------------------|
|------------------------------------------------|

G1
|------------------------------------------------|
|------------------------------------------------|
|---------------------------2--------------------|
|-3-3-2h3p2---5-3-2-----2---2--------------------|
|-----------3-------0-3-----0--------------------|
|------------------------------------------------|
G2
|------------------------------------------------|
|-6-6-5h6p5---8-6-5-----5------------------------|
|-----------5---------5-----2--------------------|
|-------------------7-------2--------------------|
|---------------------------0--------------------|
|------------------------------------------------|



G1 & G2
|------------------------------------------------|
|------------------------------------------------|
|---------2------------2------------------------2|
|-2-2--2--2----2-2--2--2----2-2-----------------2|
|-0-0--0--0----0-0--0--0----0-0--3-3-2h3p2------0|
|------------------------------------------3-----|


G1 & G2
|------------------------------------------------|
|------------------------------------------------|
|---------2------------2------------------------2|
|-2-2--2--2----2-2--2--2----2-2-----------------2|
|-0-0--0--0----0-0--0--0----0-0--3-3-2h3p2------0|
|------------------------------------------3-----|

G1 & G2
|-------------------------------|
|-------------------------------|
|---------2------------2--------|
|-2-2--2--2----2-2--2--2----2-2-|
|-0-0--0--0----0-0--0--0----0-0-|
|-------------------------------|


G1
|------------------------------------------------|
|---------------------------3--------------------|
|---------------------------2--------------------|
|-------------0---------2---0--------------------|
|-3-3-2h3p2-----3-2-0-3--------------------------|
|-----------3------------------------------------|
G2
|------------------------------------------------|
|-----------------------5---6--------------------|
|---------------------5-----7--------------------|
|-------------0-----7----------------------------|
|-3-3-2h3p2-----3-2------------------------------|
|-----------3------------------------------------|










G1 Play 2 times
|------------------------------------------------|
|-------------3----------------------------------|
|-------------2----------------------------------|
|-3-3-2h3p2---0----------------------------------|
|-----------3------------------------------------|
|------------------------------------------------|
G2
|------------------------------------------------|
|-6-6-5h6p5---6----------------------------------|
|-----------5-7----------------------------------|
|------------------------------------------------|
|------------------------------------------------|
|------------------------------------------------|



G1
|------------------------------------------------|
|--------------------------3---------------------|
|--------------------------2---------------------|
|-3-3-2h3p2---5-3-2-----2--0---------------------|
|-----------3-------0-3--------------------------|
|------------------------------------------------|
G2
|------------------------------------------------|
|-6-6-5h6p5---8-6-5-----5--6---------------------|
|-----------5---------5----7---------------------|
|-------------------7----------------------------|
|------------------------------------------------|
|------------------------------------------------|


G1 Play 2 times
|------------------------------------------------|
|-------------3----------------------------------|
|-------------2----------------------------------|
|-3-3-2h3p2---0----------------------------------|
|-----------3------------------------------------|
|------------------------------------------------|
G2
|------------------------------------------------|
|-6-6-5h6p5---6----------------------------------|
|-----------5-7----------------------------------|
|------------------------------------------------|
|------------------------------------------------|
|------------------------------------------------|

G1
|------------------------------------------------|
|------------------------------------------------|
|---------------------------2--------------------|
|-3-3-2h3p2---5-3-2-----2---2--------------------|
|-----------3-------0-3-----0--------------------|
|------------------------------------------------|
G2
|------------------------------------------------|
|-6-6-5h6p5---8-6-5-----5------------------------|
|-----------5---------5-----2--------------------|
|-------------------7-------2--------------------|
|---------------------------0--------------------|
|------------------------------------------------|



G1 & G2
|------------------------------------------------|
|------------------------------------------------|
|---------2------------2------------------------2|
|-2-2--2--2----2-2--2--2----2-2-----------------2|
|-0-0--0--0----0-0--0--0----0-0--3-3-2h3p2------0|
|------------------------------------------3-----|


G1 & G2
|------------------------------------------------|
|------------------------------------------------|
|---------2------------2------------------------2|
|-2-2--2--2----2-2--2--2----2-2-----------------2|
|-0-0--0--0----0-0--0--0----0-0--3-3-2h3p2------0|
|------------------------------------------3-----|

G1 & G2
|-------------------------------|
|-------------------------------|
|---------2------------2--------|
|-2-2--2--2----2-2--2--2----2-2-|
|-0-0--0--0----0-0--0--0----0-0-|
|-------------------------------|


G1
|------------------------------------------------|
|---------------------------3--------------------|
|---------------------------2--------------------|
|-------------0---------2---0--------------------|
|-3-3-2h3p2-----3-2-0-3--------------------------|
|-----------3------------------------------------|
G2
|------------------------------------------------|
|-----------------------5---6--------------------|
|---------------------5-----7--------------------|
|-------------0-----7----------------------------|
|-3-3-2h3p2-----3-2------------------------------|
|-----------3------------------------------------|










G1 Play 2 times
|------------------------------------------------|
|-------------3----------------------------------|
|-------------2----------------------------------|
|-3-3-2h3p2---0----------------------------------|
|-----------3------------------------------------|
|------------------------------------------------|
G2
|------------------------------------------------|
|-6-6-5h6p5---6----------------------------------|
|-----------5-7----------------------------------|
|------------------------------------------------|
|------------------------------------------------|
|------------------------------------------------|


G1
|------------------------------------------------|
|--------------------------3---------------------|
|--------------------------2---------------------|
|-3-3-2h3p2---5-3-2-----2--0---------------------|
|-----------3-------0-3--------------------------|
|------------------------------------------------|
G2
|------------------------------------------------|
|-6-6-5h6p5---8-6-5-----5--6---------------------|
|-----------5---------5----7---------------------|
|-------------------7----------------------------|
|------------------------------------------------|
|------------------------------------------------|


G1 Play 2 times
|------------------------------------------------|
|-------------3----------------------------------|
|-------------2----------------------------------|
|-3-3-2h3p2---0----------------------------------|
|-----------3------------------------------------|
|------------------------------------------------|
G2
|------------------------------------------------|
|-6-6-5h6p5---6----------------------------------|
|-----------5-7----------------------------------|
|------------------------------------------------|
|------------------------------------------------|
|------------------------------------------------|




G1
|------------------------------------------------|
|--------------------------3---------------------|
|--------------------------2---------------------|
|-3-3-2h3p2---5-3-2-----2--0---------------------|
|-----------3-------0-3--------------------------|
|------------------------------------------------|
G2
|------------------------------------------------|
|-6-6-5h6p5---8-6-5-----5--6---------------------|
|-----------5---------5----7---------------------|
|-------------------7----------------------------|
|------------------------------------------------|
|------------------------------------------------|
Добавлено: 16.07.2015
Другие материалы по этой песне:
  • Аккорды и текст

Страница создана 16.07.2015
http://primanota.ru/slough-feg/beast-in-broch-chords.htm
Привет, Гость.
Предлагаем пройти революционный курс по гитаре.
Подарок от PrimaNota.Ru, забирай!