PrimaNota.ru - самый крупный в мире бесплатный архив песенных текстов, аккордов, табулатур и нот


Slothrust - Juice - таба, видео

Регистрация Запомнить меня
Войти через:  Facebook Google Twitter Vk Yandex Mail.ru

Slothrust - Juice - таба, видео

Печатать
Просмотров: 72
Уроки эстрадного вокала в Санкт-Петербурге
Slothrust
"Juice"
Of Course You Do (2013)

Tuning - Standard (EADGBe)

Hey guys. Second track on this album and it's a weird 
one. The "heavier" verse riff (riff 2) sounds like it 
should be played with two guitars, but I don't think 
they have two guitarists. It's really tricky to jump 
up and down the neck to play the riff alone, but you're 
more than welcome to try. The solo is also a bit strange,
and I did my best to come up with a close enough 
interpretation that you may be able to figure out what's
actually happening. I couldn't find any videos of them 
playing this one live so I can't figure it all out 
perfectly, this should help you get through it though.
Any questions, comments, concerns, please let me know.

Notation Key:
  h - hammer on
  p - pull off
  b^- bend
  v - vibrato
  \ - slide down
  / - slide up
  ~ - sustain note
  (slow bend) - where noted
  r - (release) - release bend


Verse Riff 1: (x4)
(0:00-0:44)
  1   ^   2   ^   3   ^   4   ^     1   ^   2   ^   3   ^   4   ^
|---------0-----------------------|---------------------------------|
|---------0-----------------------|-------------------------7-------|
|---------0---------------3b^-----|---------6b^---------8-------8---|
|---------2---x-x-------------x-x-|-------------x-x-----------------|
|---------2---x-x-------------x-x-|-------------x-x-----------------|
|-0---0-------x-x-3---3-------x-x-|-5---5-------x-x-7---------------|

  1   ^   2   ^   3   ^   4   ^     1   ^   2   ^   3   ^   4   ^
|---0-0---0-----------------------|---------------------------------|
|---0-0---0-----------------------|-------------------------7-------|
|---0-0---0---------------3b^-----|---------6b^---------8-------8---|
|---2-2---2---x-x-------------x-x-|-------------x-x-----------------|
|---2-2---2---x-x-------------x-x-|-------------x-x-----------------|
|-0-----------x-x-3---3-------x-x-|-5---5-------x-x-7---------------|


Verse Riff 2: (x1)
(0:45-0:54)
  1   ^   2   ^   3   ^   4   ^     1   ^   2   ^   3   ^   4   ^
|---------------------------------|-------------------------191919--|
|-----------10b^------------14b^--|---------17b^r-------------------|
|---------------------------------|---------------------------------|
|-2---2-----------5---5-----------|-7---------------9---9-----------|
|-2---2-----------5---5-----------|-7---------------9---9-----------|
|-0---0-----------3---3-----------|-5---------------7---7-----------|

  1   ^   2   ^   3   ^   4   ^     1   ^   2   ^   3   ^   4   ^
|---------------------------------|-------------------------191919--|
|-----------10b^------------14b^--|---------17b^r-------------------|
|---------------------------------|---------------------------------|
|-2---2-----------5---5-----------|-----7-----------9---9-----------|
|-2---2-----------5---5-----------|-----7-----------9---9-----------|
|-0---0-----------3---3-----------|-----5-----------7---7-----------|


Verse Riff 1: (x1)
(0:55-1:05)


Chorus:
(1:06-1:29)
  1   ^   2   ^   3   ^   4   ^     1   ^   2   ^   3   ^   4   ^
|-8-------8-----8---5-5---5---5-5-|-0-0-0-0-0-------3---3-3-3-3-3-3-|
|-8-------8-----8---5-5---5---5-5-|-0-0-0-0-0-------3---3-3-3-3-3-3-|
|-9-------9-----9---6-6---6---6-6-|-0-0-0-0-0-------4---4-4-4-4-4-4-|
|-10------10----10--7-7---7---7-7-|-2-2-2-2-2---4---5---5-5-5-5-5-5-|
|-10------10----10--7-7---7---7-7-|-2-2-2-2-2---4---5---5-5-5-5-5-5-|
|-8-------8-----8---5-5---5---5-5-|-0-0-0-0-0---2---3---3-3-3-3-3-3-|

  1   ^   2   ^   3   ^   4   ^     1   ^   2   ^   3   ^   4   ^
|-8-------8-----8---5-5---5---5-5-|---------------------------------|
|-8-------8-----8---5-5---5---5-5-|-9-9-9-9-9-9-9-9-9-9-9-9-9-9-9-9-|
|-9-------9-----9---6-6---6---6-6-|-9-9-9-9-9-9-9-9-9-9-9-9-9-9-9-9-|
|-10------10----10--7-7---7---7-7-|-9-9-9-9-9-9-9-9-9-9-9-9-9-9-9-9-|
|-10------10----10--7-7---7---7-7-|-7-7-7-7-7-7-7-7-7-7-7-7-7-7-7-7-|
|-8-------8-----8---5-5---5---5-5-|---------------------------------|

  1   ^   2   ^   3   ^   4   ^     1   ^   2   ^   3   ^   4   ^
|---------------------------------|---------------------------------|
|-10------10----10--7-7---7---7-7-|-1-1-1-1-1-------5---5-5-5-5-5-5-|
|-10------10----10--7-7---7---7-7-|-2-2-2-2-2---4---5---5-5-5-5-5-5-|
|-10------10----10--7-7---7---7-7-|-2-2-2-2-2---4---5---5-5-5-5-5-5-|
|-8-------8-----8---5-5---5---5-5-|-0-0-0-0-0---2---3---3-3-3-3-3-3-|
|---------------------------------|---------------------------------|

  1   ^   2   ^   3   ^   4   ^
|---------------------------------|
|-10------10----10--7-7---7---7-7-|
|-10------10----10--7-7---7---7-7-|
|-10------10----10--7-7---7---7-7-|
|-8-------8-----8---5-5---5---5-5-|
|---------------------------------|

  1     ^     2     ^     3     ^     4     ^
|-------------------------------------------------|
|-14-14-14-14-14-14-14-14-14-14-14-14-14-14-14-14-|
|-14-14-14-14-14-14-14-14-14-14-14-14-14-14-14-14-|
|-14-14-14-14-14-14-14-14-14-14-14-14-14-14-14-14-|
|-12-12-12-12-12-12-12-12-12-12-12-12-12-12-12-12-|
|-------------------------------------------------|


                              Solo: (1:30-1:50)
  1     ^     2     ^     3   ^   4   ^     1   ^   2   ^   3   ^   4   ^
|-----------------------------------------|---------------------------------|
|-16-16-16-16-16-16-16-16-16\\--------12--|---------------------------------|
|-16-16-16-16-16-16-16-16-16\\--------14b^^(slow bend)^^^-------------------|
|-16-16-16-16-16-16-16-16-16\\------------|---------------------------------|
|-14-14-14-14-14-14-14-14-14\\------------|---------------------------------|
|-----------------------------------------|---------------------------------|

  1       ^       2       ^       3       ^       4       ^       
|-----------------------------------------------------------------|
|-----------------------------------------------------------------|
|---------14b^^^----------14vv~~----------12vv~~--14p-12----------|
|---------------------------------------------------------14p-12--|
|-----------------------------------------------------------------|
|-----------------------------------------------------------------|

  1       ^       2       ^       3       ^       4       ^       
|-----------------------------------------------------------------|
|-----------------12\\\\\\\---------------------------------------|
|-----------------12\\\\\\\-------------------------------12vv~~~-|
|-14vvvv~~~~~~~~----------------------------------12h-14----------|
|-----------------------------------------12h13h14----------------|
|-----------------------------------------------------------------|

  1       ^       2       ^       3       ^       4       ^        
|-------------------------------------------15--------------------|
|--------------------------------------15---------15---15---15----|
|-------------------------14b^^^------------------14b^-14b^-14b^--|
|---------14vv~~--------------------------------------------------|
|-----------------------------------------------------------------|
|-----------------------------------------------------------------|

  1       ^       2       ^       3       ^       4       ^        
|-------------------------15vv~~----------------------------------|
|-15----------------------------------------------15--------------|
|-14b^(slow bend)-------------------------------------------------|
|-----------------------------------------------------------------|
|-----------------------------------------------------------------|
|-----------------------------------------------------------------|

  1       ^       2       ^       3       ^       4       ^        
|------15---15----------------------------------------------------|
|-----------------15---15-----------------------------------------|
|-----------------14---14---14b^r-14vv~~----------12------14------|
|-----------------------------------------------------------------|
|-----------------------------------------------------------------|
|-----------------------------------------------------------------|

  1       ^       2       ^       3       ^       4       ^        
|-----------------------------------------------------------------|
|-15---12---------------------------------------------------------|
|-----------14----12---14---14----14b^r14---13----12---13---14----|
|-----------------------------------------------------------------|
|-----------------------------------------------------------------|
|-----------------------------------------------------------------|

  1   ^   2   ^   3   ^   4   ^     1   ^   2   ^   3   ^   4   ^
|---------------------------------|---------------------------------|
|---------------------------------|---------------------------------|
|-11vv~~--10vv~~--9vv~~~--8bbb^^(9vvvvvv~~~~~~~~~~~~~~~)------------|
|---------------------------------|---------------------------------|
|---------------------------------|---------------------------------|
|---------------------------------|---------------------------------|


Verse Riff 1: (x1)
(1:51-2:00)


Verse Riff 2: (x2)
(2:01-2:20)


Chorus:
(2:21-2:52)


Notation Key:
  h - hammer on
  p - pull off
  b^- bend
  v - vibrato
  \ - slide down
  / - slide up
  ~ - sustain note
  (slow bend) - where noted
  r - (release) - release bend

There you have it. Good luck and enjoy!

~Jeyqwop
Добавлено: 23.05.2016
Другие материалы по этой песне:
  • Аккорды и текст

Страница создана 23.05.2016
http://primanota.ru/slothrust/juice-chords.htm
Привет, Гость.
Предлагаем пройти революционный курс по гитаре.
Подарок от PrimaNota.Ru, забирай!