PrimaNota.ru - самый крупный в мире бесплатный архив песенных текстов, аккордов, табулатур и нот


Slothrust - Cubicle - таба, видео

Регистрация Запомнить меня
Войти через:  Facebook Google Twitter Vk Yandex Mail.ru

Slothrust - Cubicle - таба, видео

Печатать
Просмотров: 61
Уроки эстрадного вокала в Санкт-Петербурге
Slothrust
"Cubicle"
Of Course You Do (2013)

Tuning - Standard (EADGBe)

Hey guys. This song is a fun one with a great solo. It's mostly
just chords so I've written out most of the song as a chords/lyrics
style tab. I've tabbed out the riffs and solos in detail below.
Might not be perfect, but it's close enough to spin your own
interpretation on it. Any questions, comments, concerns, please
let me know.

Notation Key:
  h - hammer on
  p - pull off
  b^- bend
  v - vibrato
  \ - slide down
  / - slide up
  ~ - sustain note
  (slow bend) - where noted
  (release) - release bend

Chords:
      E           C          C#m          G#          A
|-----0-----|-----0-----|-----4-----|-----4-----|-----5-----|
|-----0-----|-----1-----|-----5-----|-----4-----|-----5-----|
|-----1-----|-----0-----|-----6-----|-----5-----|-----6-----|
|-----2-----|-----2-----|-----6-----|-----6-----|-----7-----|
|-----2-----|-----3-----|-----4-----|-----6-----|-----7-----|
|-----0-----|-----------|-----------|-----4-----|-----5-----|


|-E-----C-|-E-----C-|-E-----C-|-E-------|

|-E-----C-|-E-----C-|-E-----C-|-E-----C-|


|E|   |C| |E| |C||E|        |C||E| 
 I try my best, to hide that I care,

                 |C#m|                      |G#|
 that you got me wrong, you know you got me wrong,

          |A|         |E|
 yeah you got me wrong.

                   |C#m|                      |G#|
 You really got me wrong, you know you got me wrong,
 
         |A|          |E|     |C|C|C|C|
 yeah you got me wrong.

|E|    |C||E|  |C| |E|          |C| |E|
 I look a-round, the light hurts my eyes.

        |C#m|              |G#|     |A|         |E|
 And I'm falling deeper and deeper into the void.

         |C#m|              |G#|     |A|         |E|
 Yeah I'm falling deeper and deeper into the void.


Post chorus riff:
(0:59-1:11)
  1  ^  2  ^  3  ^  4  ^    1  ^  2  ^  3  ^  4  ^
|-0-----0-----0--0--0--0~~~~~~-0--------------------|
|-0-----0-----0--0--0--3b^^^^^----3p-0--------------|
|-1-----1-----1--1--1-----|-------------2p-0--------|
|-2-----2-----2--2--2-----|-------------------2p-0--|
|-2-----2-----2--2--2-----|-------------------------|
|-0-----0-----0--0--0-----|-------------------------|


|E|        |C|  |E|  |C| |E|        |C| |E|
 I punched some holes, and picked at my nails.

      |C#m|                    |G#|    |A|     |E|
 Will somebody please put some tacks in my eyes?

      |C#m|                    |G#|    |A|     |E|     |C|C|C|C|
 Will somebody please put some tacks in my eyes?


   |E|      |C|  |E| |C||E|          |C| |E|
 How big is your nest? Is there room for me?

         |C#m|             |G#|      |A|      |E|
 Will you regurgitate some worms into my mouth?

         |C#m|             |G#|      |A|      |E|
 Will you regurgitate some worms into my mouth?


Post chorus riff:
(1:51-2:10)
  1  ^  2  ^  3  ^  4  ^    1  ^  2  ^  3  ^  4  ^
|-0-----0-----0--0--0--0~~~~~~-0--------------------|
|-0-----0-----0--0--0--3b^^^^^----3p-0--------------|
|-1-----1-----1--1--1-----|-------------2p-0--------|
|-2-----2-----2--2--2-----|-------------------2p-0--|
|-2-----2-----2--2--2-----|-------------------------|
|-0-----0-----0--0--0-----|-------------------------|


Solo:
(2:10-2:59)
  1  ^  2  ^  3  ^  4  ^    1  ^  2  ^  3  ^  4  ^    1  ^  2  ^  3  ^  4  ^
|-------------------------|-------------------------|-------------------------|
|-------------------------|-------------------------|-------------------------|
|-------11b^--------11b^--|-11b^--11b^--11b^--11----|-9vvv~~~~~~~~~~~~~~~~~~--|
|-------------------------|-------------------------|-------------------------|
|-------------------------|-------------------------|-------------------------|
|-------------------------|-------------------------|-------------------------|

  1  ^  2  ^  3  ^  4  ^    1  ^  2  ^  3  ^  4  ^    1  ^  2  ^  3  ^  4  ^
|-------------------------|-------------------------|-------------------------|
|-------------------------|-------------------------|-------------------------|
|-------------------9vv---|-11p9--11b^--11p9--11b^--|-11p9--11b^--11p9--------|
|-------------9h-11-------|-------------------------|-------------------11----|
|-------9h-11-------------|-------------------------|-------------------------|
|-------------------------|-------------------------|-------------------------|

  1  ^  2  ^  3  ^  4  ^    1  ^  2  ^  3  ^  4  ^    1  ^  2  ^  3  ^  4  ^
|-------------------------|-------------------------|-------------------------|
|-------------------------|-------------------------|-------12----14////17----|
|-9vvv~~~~~~~~~~~~~~~~~~--|-11v~~~~~~~~-12v~~~~~~~~-|-13----------------------|
|-------------------------|-------------------------|-------------------------|
|-------------------------|-------------------------|-------------------------|
|-------------------------|-------------------------|-------------------------|

  1  ^  2  ^  3  ^  4  ^    1  ^  2  ^  3  ^  4  ^    1  ^  2  ^  3  ^  4  ^
|-14----------14b^--14----|-------------------------|-------------------------|
|-------17----------------|-17vvv~~~~~~~~~~~~~~~~~~-|-14v~~~~~~~~-12v~~~~~~~~-|
|-------------------------|-------------------------|-------------------------|
|-------------------------|-------------------------|-------------------------|
|-------------------------|-------------------------|-------------------------|
|-------------------------|-------------------------|-------------------------|

  1   ^   2   ^   3   ^   4   ^     1   ^   2   ^   3   ^   4   ^ 
|---------------------------------|---------------------------------|
|-12h14p12----12------------------|---------12----------------------|
|---------13------13\\11--11--11--|-11b^~~~~~~~~----11------11b^(slow bend)
|---------------------------------|---------------------------------|
|---------------------------------|---------------------------------|
|---------------------------------|---------------------------------|

  1  ^  2  ^  3  ^  4  ^    1  ^  2  ^  3  ^  4  ^    1  ^  2  ^  3  ^  4  ^
|-------------------------|-------------------------|-------------12----------|
|-------------------------|-------------------------|-------------12----------|
(slow bend)^^^^^^^--11b11b|-11b---11b11b11b11b11b11b|-11b^^^^^^---------11b^--|
|-------------------------|-------------------------|-------------------------|
|-------------------------|-------------------------|-------------------------|
|-------------------------|-------------------------|-------------------------|

  1  ^  2  ^  3  ^  4  ^    1  ^  2  ^  3  ^  4  ^    1  ^  2  ^  3  ^  4  ^
|-------12----------------|-------------------------|-------------------------|
|-------12----------------|-------------------------|-------------------------|
|(11b^^)------11------11b^(slow bend)^^^^^^---11b11b|-11b11-9h-11p9vv---11vv--|
|-------------------------|-------------------------|-------------------------|
|-------------------------|-------------------------|-------------------------|
|-------------------------|-------------------------|-------------------------|

  1  ^  2  ^  3  ^  4  ^    1  ^  2  ^  3  ^  4  ^    1  ^  2  ^  3  ^  4  ^
|-------------12~~~~~~~---|-------------------------|-------------------------|
|-------------12~~~~~~~---|-------------------------|-------------------------|
|-11b^^^^^^~~~~~~~-(release)11----9vv~--9\\6//9vvvv~~~~~~~~~~~~~~~~~~~~~~~~~~-|
|-------------------------|-------------------------|-------------------------|
|-------------------------|-------------------------|-------------------------|
|-------------------------|-------------------------|-------------------------|

  1  ^  2  ^  3  ^  4  ^    1  ^  2  ^  3  ^  4  ^    1  ^  2  ^  3  ^  4  ^
|-------------------------|-------------12----------|-------12-----------------
|-------------------------|-------------12----------|-------12----------------|
|-11v~~~~~~~~-12v~~~~~~~~-|-11b^^^^^^---------11b^^^^^^-----------11----11b^^-|
|-------------------------|-------------------------|-------------------------|
|-------------------------|-------------------------|-------------------------|
|-------------------------|-------------------------|-------------------------|

  1  ^  2  ^  3  ^  4  ^    1  ^  2  ^  3  ^  4  ^    1  ^  2  ^  3  ^  4  ^
|-------------------------|-------------------------|-------------12~~~~~~~---|
|-------------------------|-------------------------|-------------12~~~~~~~---|
|(11b^^^^^^)--11b^--11b^--|-11b^--11b^--11----9-----|-11b^^^^^^~~~~~~-(release)
|-------------------------|-------------------------|-------------------------|
|-------------------------|-------------------------|-------------------------|
|-------------------------|-------------------------|-------------------------|

  1  ^  2  ^  3  ^  4  ^    1  ^  2  ^  3  ^  4  ^    1  ^  2  ^  3  ^  4  ^
|-------------------------|-------------------------|-------------------------|
|-------------------------|-------------------------|-------------------------|
|-11----9-----11----9vvvv~~~~~~~~~~~~~~~~~~~~~~~~~~-|-9\\\\\\\\\\\\\\\\\\\\\\-|
|-------------------------|-------------------------|-------------------------|
|-------------------------|-------------------------|-------------------------|
|-------------------------|-------------------------|-------------------------|

  1  ^  2  ^  3  ^  4  ^    1  ^  2  ^  3  ^  4  ^    1  ^  2  ^  3  ^  4  ^
|-0-----0-----0--0--0--0~~~~~~-0--------------------|-0--0--------------------|
|-0-----0-----0--0--0--3b^^^^^----3p-0--------------|-0--0--------------------|
|-1-----1-----1--1--1-----|-------------2p-0--------|-1--1--------------------|
|-2-----2-----2--2--2-----|-------------------2p-0--|-2--2--------------------|
|-2-----2-----2--2--2-----|-------------------------|-2--2--------------------|
|-0-----0-----0--0--0-----|-------------------------|-0--0--------------------|


Notation Key:
  h - hammer on
  p - pull off
  b^- bend
  v - vibrato
  \ - slide down
  / - slide up
  ~ - sustain note
  (slow bend) - where noted
  (release) - release bend

There you have it. Good luck and enjoy!

~Jeyqwop
Добавлено: 23.05.2016
Другие материалы по этой песне:
  • Аккорды и текст

Страница создана 23.05.2016
http://primanota.ru/slothrust/cubicle-chords.htm
Привет, Гость.
Предлагаем пройти революционный курс по гитаре.
Подарок от PrimaNota.Ru, забирай!