PrimaNota.ru - самый крупный в мире бесплатный архив песенных текстов, аккордов, табулатур и нот


Slothrust - Crockpot - таба, видео

Регистрация Запомнить меня
Войти через:  Facebook Google Twitter Vk Yandex Mail.ru

Slothrust - Crockpot - таба, видео

Печатать
Просмотров: 82
SLOTHRUST- Crockpot(INTRO AND REFRAINS) 
This is a great song, and I taught myself the guitar part,
and I decided to make it a tab! Hope this is good.
Enjoy!

****(I later realized that the bassist plays the intro 
but it can still be played on a guitar)****

INTRO/VERSE 1:
e|-----------------------------------------------------------------------|
B|-----------------------------------------------------------------------|
G|-----------------------------------------------------------------------|
D|-----------------------------------------------------------------------|
A|-7--5--3---5-2---2--0--2-0---------5--3---5-2---2--0--2/3-2/0-2-0------|
E|----------------------------3--------------------------------------3---|

e|----------------------------------------------------------------|
B|----------------------------------------------------------------|
G|----------------------------------------------------------------|
D|----------------------------------------------------------------|
A|-7--5--3---5-2--2----------------7--5--3---5-2---2--0--2-0------|
E|--------------------5---5-----------------------------------3---|
(REPEAT FOR VERSE 1)


REFRAIN 1:
e|------------------------------------------|
B|------------------------------------------|
G|------------------------------------------|
D|--10-10-10-10---7-7-7-7---2-2-2-2------3--|
A|--10-10-10-10---7-7-7-7---2-2-2-2------3--|
E|--8--8--8--8----5-5-5-5---0-0-0-0------1--|


REFRAIN 2:
e|-----------------------------------------------------------------------------------------------|
B|-----------------------------------------------------------------------------------------------|
G|-----------------------------------------------------------------------------------------------|
D|--10-10-10-10---7-7-7-7---2-2-2-2----3---10-10-10-10---7-7-7-7----2-2-2-2----------------------|
A|--10-10-10-10---7-7-7-7---2-2-2-2----3---10-10-10-10---7-7-7-7----2-2-2-2-------------0--------|
E|--8--8--8--8----5-5-5-5---0-0-0-0----1---8--8--8--8----5-5-5-5----0-0-0-0-----0-1-0-1---3-1-0--|

e|-----------------------------------------------------------------------------------------------|
B|-----------------------------------------------------------------------------------------------|
G|-----------------------------------------------------------------------------------------------|
D|--10-10-10-10---7-7-7-7---2-2-2-2----3---10-10-10-10---7-7-7-7----2-2-2-2----------------------|
A|--10-10-10-10---7-7-7-7---2-2-2-2----3---10-10-10-10---7-7-7-7----2-2-2-2-------------0--------|
E|--8--8--8--8----5-5-5-5---0-0-0-0----1---8--8--8--8----5-5-5-5----0-0-0-0-----0-1-0-1---3-1-0--|


REFRAIN 3:
e|--------------------------------------------------------------------------------------------|
B|--------------------------------------------------------------------------------------------|
G|--------------------------------------------------------------------------------------------|
D|--10-10-10-10---7-7-7-7---2-2-2-2----3---10-10-10-10---7-7-7-7----2-2-2-2-------------------|
A|--10-10-10-10---7-7-7-7---2-2-2-2----3---10-10-10-10---7-7-7-7----2-2-2-2-------------------|
E|--8--8--8--8----5-5-5-5---0-0-0-0----1---8--8--8--8----5-5-5-5----0-0-0-0-------0-1-0-1-----|
                                                                               (at the end of this refrain,
                                                                                they kind of go crazy here)

REFRAIN 4:
e|----------------------------------------------------------------------------------|
B|----------------------------------------------------------------------------------|
G|----------------------------------------------------------------------------------|
D|--10-10-10-10-10-10-10-10---7-7-7-7-7-7-7-7---2-2-2-2-2-2-2-2---3-3-3-3-3-3-3-3---|
A|--10-10-10-10-10-10-10-10---7-7-7-7-7-7-7-7---2-2-2-2-2-2-2-2---3-3-3-3-3-3-3-3---|
E|--8--8--8--8--8--8--8--8----5-5-5-5-5-5-5-5---0-0-0-0-0-0-0-0---1-1-1-1-1-1-1-1---|

e|----------------------------------------------------------------------------------|
B|----------------------------------------------------------------------------------|
G|----------------------------------------------------------------------------------|
D|--10-10-10-10-10-10-10-10---7-7-7-7-7-7-7-7---2-2-2-2-2-2-2-2---3-3-3-3-3-3-3-3---|
A|--10-10-10-10-10-10-10-10---7-7-7-7-7-7-7-7---2-2-2-2-2-2-2-2---3-3-3-3-3-3-3-3---|
E|--8--8--8--8--8--8--8--8----5-5-5-5-5-5-5-5---0-0-0-0-0-0-0-0---1-1-1-1-1-1-1-1---|

e|-----------------------|
B|-----------------------|
G|--9-7-5--7-4b5--5------| x8
D|-----------------------|
A|-----------------------|
E|-----------------------|
Добавлено: 24.12.2015
Другие материалы по этой песне:
  • Аккорды и текст

Страница создана 24.12.2015
http://primanota.ru/slothrust/crockpot-chords.htm
Привет, Гость.
Предлагаем пройти революционный курс по гитаре.
Подарок от PrimaNota.Ru, забирай!