PrimaNota.ru - самый крупный в мире бесплатный архив песенных текстов, аккордов, табулатур и нот


Слот - Одни - текст песни, таба, видео

Регистрация Запомнить меня
Войти через:  Facebook Google Twitter Vk Yandex Mail.ru

Слот - Одни - текст песни, таба, видео

Печатать
Просмотров: 112
Slot is a popular Russian rock band. http://www.myspace.com/theslot

This tab is to their song called "Odni". I choose to play it in Drop C because it's my tuning
of choice, but if you would rather play it in Drop D, just move everything down 2 frets.

 = Natural Harmonic
* = Palm Muted

Intro:

D|-----------------------|
A|------<7>-----<7>------|
F|-----------------------|
C|------------------9-9--| x3 (On the fourth time, it's cut short.)
G|--6-6-----2-2-----7-7--|
C|--6-6-----2-2----------|
            *       *

Verse One (Male Vocals):
Figure out the pattern yourself, it's easy. :)

D|------------------------|
A|------------------------|
F|--8---4---4---4/6--6/7--|
C|--6---2---4---x-x--x-x--|
G|--6---2---2---2/4--4/5--|
C|--6---2-----------------|

No guitar in the female vocals.


Chorus:
Again, it's simple to pick out the strumming pattern from the song.

D|-------------------|
A|-------------------|
F|--8---4---4---4/6--|
C|--6---2---4---x-x--| x2
G|--6---2---2---2/4--|
C|--6---2------------|


Second verse, no guitar.


Repeat chorus:

D|-------------------|
A|-------------------|
F|--8---4---4---4/6--|
C|--6---2---4---x-x--| x2
G|--6---2---2---2/4--|
C|--6---2------------|


Intro again:

D|-----------------------|
A|------<7>-----<7>------|
F|-----------------------|
C|------------------9-9--| x3 (On the fourth time, it's cut short.)
G|--6-6-----2-2-----7-7--|
C|--6-6-----2-2----------|
            *       *

Bridge:

D|--------------------------------|   |---------|
A|--------------------------------|   |---------|
F|--------------------------------|   |--6-/-7--|
C|--7p6-6-6--7p6-6--7p6--7p6~--3--|x3 |--x---x--| (QUANTITY) x2
G|--7p6-6-6--7p6-6--7p6--7p6~--3--|   |--4-/-5--|
C|--7p6-6-6--7p6-6--7p6--7p6~--3--|   |---------|


Last Chorus / Outro:

D|-------------------|
A|-------------------|
F|--8---4---4---4/6--|
C|--6---2---4---x-x--| x4
G|--6---2---2---2/4--|
C|--6---2------------|

D|---------|
A|---------|
F|---------|
C|---6~~---|
G|---6~~---|
C|---6~~---|
Добавлено: 17.05.2016
Другие материалы по этой песне:

Страница создана 19.02.2014
http://primanota.ru/slot-2/odni-chords.htm
Привет, Гость.
Предлагаем пройти революционный курс по гитаре.
Подарок от PrimaNota.Ru, забирай!