PrimaNota.ru - самый крупный в мире бесплатный архив песенных текстов, аккордов, табулатур и нот


Слот - 7 звонков - аккорды и текст, видео

Регистрация Запомнить меня
Войти через:  Facebook Google Twitter Vk Yandex Mail.ru

Слот - 7 звонков - аккорды и текст, видео

Печатать
Просмотров: 1022
7 звонков
Слот
7 звонков

Вступление/Куплет (часть Кэша):
B5 - G5 - D5 - F#5

Куплет (часть Нуки):
B5 - D5 - G5 - F#5
B5 - D5 - G5 - A5

Припев:
B5 - G5 - E5 - F#5
B5 - G5 - A5 - B5

Бридж:
B5 - G5 - A5
B5 - G5 - A5

Бридж (табы):
___ B5
E|-------------------------------------
B|-------------------------------------
G|-------------------------------------
D|-9-9-12-12-12-12-9-9-11-11-11-11-9-9-12-12-12-12-9-9-11-11-11-11
A|-9-9----------9-9---------9-9--------9-9-------
D|-9-9----------9-9---------9-9---------9-9-------


___G5_______________________________ A5
E|-----------------------------
B|-----------------------------
G|---7-7-7-7----6-6-6-6---7-7-7-7----9-9-9-9--
D|-5-5-----5-5-----5-5-----7-7------
A|-5-5-----5-5-----5-5-----7-7------
D|-5-5-----5-5-----5-5-----7-7------
Добавлено: 03.12.2013
Другие материалы по этой песне:

Страница создана 23.03.2012
http://primanota.ru/slot-2/7-zvonkov-chords.htm
Привет, Гость.
Предлагаем пройти революционный курс по гитаре.
Подарок от PrimaNota.Ru, забирай!