PrimaNota.ru - самый крупный в мире бесплатный архив песенных текстов, аккордов, табулатур и нот


Sloslylove - Adore - бас-таба, видео

Регистрация Запомнить меня
Войти через:  Facebook Google Twitter Vk Yandex Mail.ru

Sloslylove - Adore - бас-таба, видео

Печатать
Просмотров: 61
Уроки эстрадного вокала в Санкт-Петербурге
-------------------------------------------------------------------------------
                             Adore - sloslylove
-------------------------------------------------------------------------------
Tabbed by: Jack Rayner
Twitter: @thejackrayner

Tuning: DADG

Repeat the following two riffs. (Quiet/Gentle)

G|---------------------------------------|
D|-----------x-4-------------------------|
A|---4-----2-----------------------------|
D|-----------------2----0--------(0h2p0)-|

G|---------------------------------------|
D|-----------x-4-------------------------|
A|-1h4-----2-----------------------------|
D|-----------------2----0--------(0h2p0)-|


| /  slide up
| \  slide down
| h  hammer-on
| p  pull-off
| ~  vibrato
| +  harmonic
| x  Mute note
===============================================================================
Добавлено: 04.08.2015
Другие материалы по этой песне:
  • Аккорды и текст

Страница создана 04.08.2015
http://primanota.ru/sloslylove/adore-chords.htm
Привет, Гость.
Предлагаем пройти революционный курс по гитаре.
Подарок от PrimaNota.Ru, забирай!