PrimaNota.ru - самый крупный в мире бесплатный архив песенных текстов, аккордов, табулатур и нот


Sloppy Seconds - The Horror At Party Beach - бас-таба, видео

Регистрация Запомнить меня
Войти через:  Facebook Google Twitter Vk Yandex Mail.ru

Sloppy Seconds - The Horror At Party Beach - бас-таба, видео

Печатать
Просмотров: 91
Уроки эстрадного вокала в Санкт-Петербурге
-------------------------------------------------------------------------------
                             The Horror At Party Beach - Sloppy Seconds
-------------------------------------------------------------------------------
Tabbed by: Leo Ventura
E-mail: Leo_V1993@yahoo.com

Tuning:EADG
BASS
F MAJOR


Intro x2

E-------------------------------------------
A-8-8-8-7-5-5-5-3-1-1-1-1-1-1-1-1-----------
D-------------------------------------------
G-------------------------------------------

Verse X3

E-------------------------------------------
A-8-8-8-8-----------------------------------
D---------6-8-10---5-5-5-5-1-1-1-1---1-5-3--
G----------------------------------3--------
On fourth time hold 3

Intro x2

E-------------------------------------------
A-8-8-8-7-5-5-5-3-1-1-1-1-1-1-1-1-----------
D-------------------------------------------
G-------------------------------------------

Verse X3

E-------------------------------------------
A-8-8-8-8-----------------------------------
D---------6-8-10---5-5-5-5-1-1-1-1---1-5-3--
G----------------------------------3--------
On fourth time hold 3

Break x4

E-------------------------------------------
A-8-8-8-8-8-8-8-8---------------------------
D-------------------------------------------
G-------------------------------------------
On last time only play 5 times.

Intro x2

E-------------------------------------------
A-8-8-8-7-5-5-5-3-1-1-1-1-1-1-1-1-----------
D-------------------------------------------
G-------------------------------------------

Verse X3

E-------------------------------------------
A-8-8-8-8-----------------------------------
D---------6-8-10---5-5-5-5-1-1-1-1---1-5-3--
G----------------------------------3--------
On fourth time hold 3

Break x12 OR UNTIL DONE SAYING "HORROR OF PARTY BEACH"

E-------------------------------------------
A-8-8-8-8-8-8-8-8---------------------------
D-------------------------------------------
G-------------------------------------------




| /  slide up
| \  slide down
| h  hammer-on
| p  pull-off
| ~  vibrato
| +  harmonic
| x  Mute note
===============================================================================
Добавлено: 08.06.2016
Вам также может быть интересно:
Другие материалы по этой песне:
  • Аккорды и текст

Страница создана 08.06.2016
http://primanota.ru/sloppy-seconds/horror-at-party-beach-chords.htm
Привет, Гость.
Предлагаем пройти революционный курс по гитаре.
Подарок от PrimaNota.Ru, забирай!