PrimaNota.ru - самый крупный в мире бесплатный архив песенных текстов, аккордов, табулатур и нот


Slon N Sadez - Fantastičnih 5 - аккорды и текст, видео

Регистрация Запомнить меня
Войти через:  Facebook Google Twitter Vk Yandex Mail.ru

Slon N Sadez - Fantastičnih 5 - аккорды и текст, видео

Печатать
Просмотров: 108
Fantastičnih 5
Slon N Sadez
Bridge:
e|-------------------------------------------------|
B|-------------------------------------------------|
G|-------------------------------------------------|
D|-----------------------------------3--3-5-3-5----|
A|-----------------------3--3-6-3-6----------------|
E|-5--5-3--3-1--1-0-1-0----------------------------|

e|-------------------------------------------------|
B|-------------------------------------------------|
G|-------------------------------------------------|
D|-------------------------------------------------|
A|-----------------------3--3-6-3-3----------------|
E|-5--5-3--3-1--1-0-1-0----------------------------|

Am                G
Ko šolski zvonec zazvoni
F                C
že pred šolo smo zbrani vsi
C                      G
Dekleta ogledujejo nas in mi njih
F                    C
uh, kako je vroce, zastaja mi dih

Am                G
A casa ni za igro, zabavo in ples
F                C
Zvecer nastopamo in takrat gre zares
C                      G
Vadimo veliko, vcasih je težko
F                             G
A zvecer z vami vsem nam je lepo, uou-uo.


C                        G
Mi smo fantasticnih pet, fantovski kvintet
       F                C        G
delamo musko za dekleta izpod 12 let
C                   G     
Tony, Jani, Boki, Tomaž in Adi
F                   C
vsi smo lepi, vsi smo mladi



Am                G
Dela je veliko, denarja pa malo
F                C
Na pet delov si delimo to, kar je ostalo
C                      G
po tem ko so agent, stilistka in še ene par
F                    C
Vsak dobili svoj masten honorar

Am                G
Od nastopa do nastopa vsak dan ni lahko
F                C
a lažje je v pet, ker si pomagamo
C                      G
Boki je na koki, Jani fura heroin
F                                G
Jst, Tomaž in Adi pa tablete, cez pa vin, uou-uo.

rEFREN:

C                        G
Mi smo fantasticnih pet, fantovski kvintet
       F                C        G
delamo musko za dekleta izpod 12 let
C                   G     
Tony, Jani, Boki, Tomaž in Adi
F                   C
vsi smo lepi, vsi smo mladi

D                     A
Mi smo fantasicnih 5, fantovski kvintet
           G                  D        A 
pri svojih osemnajstih smo že osvojili svet
      D              A
nic posebnega nismo, takšni smo kot vi,
G                       A                    D
Ce mi lahko smo zvezde, lahko si zvezda tudi ti.
Добавлено: 10.08.2015
Вам также может быть интересно:
Другие материалы по этой песне:
  • Аккорды и текст

Страница создана 10.08.2015
http://primanota.ru/slon-n-sadez/fantasticnih-5-chords.htm
Привет, Гость.
Предлагаем пройти революционный курс по гитаре.
Подарок от PrimaNota.Ru, забирай!