PrimaNota.ru - самый крупный в мире бесплатный архив песенных текстов, аккордов, табулатур и нот


Sloan - If It Feels Good Do It - аккорды и текст, таба, бас-таба, видео

Регистрация Запомнить меня
Войти через:  Facebook Google Twitter Vk Yandex Mail.ru

Sloan - If It Feels Good Do It - аккорды и текст, таба, бас-таба, видео

Печатать
Просмотров: 164
If It Feels Good Do It
Sloan
		   Author/Artist: Sloan
Title: If It Feels Good, C It
Album: Pretty Together
Tabbed by: Bruno Valle
Email: brunovalle86@hotmail.com

Awesome song, this is! As soon as I can get my hands on the new album, I 
will.
Anyway, this tab is probably far from perfect. In fact, its SO far from 
Perfect, if it wanted to get to Perfect, it would need to take two planes 
and a barge.

Yeah, so anyway, onto the music!


Intro:
------------------------------------------------------------------------------
------------------------------------------------------------------------------
---6-6-4-6--6--4-6-6-4--------------------------------------------------------
---6-6-4-6--6--4-6-6-4--4-2---------------------------------------------------
---4-4-2-4--4--2-4-4-2--4-2---------------------------------------------------
------------------------2-0---------------------------------------------------


Verse:
  7x 3x  7x 3x
------------------------------------------------------------------------------
------------------------------------------------------------------------------
---6-----4--------------------------------------------------------------------
---6--2--4--4-----------------------------------------------------------------
---4--2--2--4-----------------------------------------------------------------
------0-----2-----------------------------------------------------------------


Riff At The End Of The Verse:
------------------------------------------------------------------------------
------------------------------------------------------------------------------
------------------------------------------------------------------------------
------2-4---------------------------------------------------------------------
--2-4-----2-4-----------------------------------------------------------------
------------------------------------------------------------------------------


Pre Chorus Almost Same As Intro Thing:
------------------------------------------------------------------------------
------------------------------------------------------------------------------
---6-6-4-6--6--4-6-6-4--------6-6-4-6--6--4-6-6-4-----------------------------
---6-6-4-6--6--4-6-6-4--4-2---6-6-4-6--6--4-6-6-4--9--4-----------------------
---4-4-2-4--4--2-4-4-2--4-2---4-4-2-4--4--2-4-4-2--9--4-----------------------
------------------------2-0------------------------7--2-----------------------


Chorus: Same as intro.


Pre chorus bits with words "Saw it all and I can't denyyy" bit:
------------------------------------------------------------------------------
------------------------------------------------------------------------------
---6-----4--------------------------------------------------------------------
---6--2--4--4-----------------------------------------------------------------
---4--2--2--4-----------------------------------------------------------------
------0-----2-----------------------------------------------------------------


And thats all I have for know. Ill try to get the solo that goes with the 
"naa na na na", and other bits of the song, soon. Its all these chords 
anyway, so if you have any initiative you could probably figure the last 
bits out. Feel free to send emails about the tab or song!
     
Добавлено: 25.09.2013
Другие материалы по этой песне:
  • Аккорды и текст

Страница создана 14.04.2012
http://primanota.ru/sloan/if-it-feels-good-do-it-chords.htm
Привет, Гость.
Предлагаем пройти революционный курс по гитаре.
Подарок от PrimaNota.Ru, забирай!