PrimaNota.ru - самый крупный в мире бесплатный архив песенных текстов, аккордов, табулатур и нот


Sloan - I Hate My Generation - текст песни, таба, видео

Регистрация Запомнить меня
Войти через:  Facebook Google Twitter Vk Yandex Mail.ru

Sloan - I Hate My Generation - текст песни, таба, видео

Печатать
Просмотров: 91
Уроки эстрадного вокала в Санкт-Петербурге
Whenever you see the sequence Dm B7, you arpeggiate the chords like this:

    Dm           B7
|------1-----------2---|        
|--------3-----------0-|        
|---2-----------2------|        
|-0-----------1--------|        
|-----------2----------|        
|----------------------| 
        
        Dm         B7    
        What could you both possibly share, 
        Dm                  B7
        Other than than the colour of your hair?
        Dm         B7
        Sean said "we both play guitar"
        F          E 
        Never even had to say a word
        F                    E
        That's the best thing that I ever heard
        Dm              B7                 
        You have left a fingerprint on me

Guitar 1: Dm B7

Guitar 2: 
|----------------------|        
|----------------------|        
|----------------------|       
|-----/5-3-------------|
|-0-3-------2-3-2------|
|-----------------3--1-|
        
        Dm            B7
        Just dust and then you'll surely see

        F           E
        I've got my reservations
            F         E
        and I hate my generation

        A                    F#m                     D
        If I was born in the 40's, I'd be teen in the 50s
                      Dm
        And maybe I'd watch too much TV
            A                 F#m                               D
        And maybe, maybe it's my fault, I should take it with a grain of salt


Guitar 1:
Dm B7 x3

Guitar 2:
|---------------------------------------------------------|
|---------------------------------------------------------|
|---------------------------------------------------------| 
|-----/5-3---------------/5-3---------------/5-3----------|
|-0-3-------2-3-2------3-------2-3-2------3-------2-3-2---|
|-----------------3--1---------------3--1---------------3-|


        F           E  
        I've got my hesitations
        F            E           A   B   D   A
        Wait on your generation

        A              B  D                         A
        S-E-A-N-S-A-I-D   P-L-A-Y yeah yeah yeah yeah
        A              B  D                             Dm
        S-E-A-N-S-A-I-D   P-L-A-Y yeah yeah yeah yeah
        A                 F#m                               D
        Maybe, maybe it's my fault, I should take it with a grain of salt

        Dm         B7
        What could you both possibly share
        Dm                  B7
        Other than than the colour of your hair?
        Dm         B7
        Sean said "We both play guitar"
        F          E
        Never even had to say a word
        F                    E
        That's the best thing that I ever heard

        F             E
        I have got my reservations 
           F             E           A
        As I skate by my generation  ooooh
Добавлено: 07.09.2013
Другие материалы по этой песне:

Страница создана 24.06.2012
http://primanota.ru/sloan/i-hate-my-generation-chords.htm
Привет, Гость.
Предлагаем пройти революционный курс по гитаре.
Подарок от PrimaNota.Ru, забирай!