PrimaNota.ru - самый крупный в мире бесплатный архив песенных текстов, аккордов, табулатур и нот


Slo Burn - Wheel Fall - таба, видео

Регистрация Запомнить меня
Войти через:  Facebook Google Twitter Vk Yandex Mail.ru

Slo Burn - Wheel Fall - таба, видео

Печатать
Просмотров: 57
-------------------------------------------------------------------------------
                             Wheel Fall - Slo Burn
-------------------------------------------------------------------------------
Tabbed by: VakiPitsi
 
Tuning: Drop C (CGCFAD)

D|-----------------------------|
A|-----------------------------|
F|-----------------------------| x4
C|------------------3----------|
G|-------3------3h5------------|
C|--0--0---0--0----------------|

D|---------------------------------------------------------------------------------------------|
A|---------------------------------------------------------------------------------------------|
F|---------------------------------------------------------------------------------------------|
C|------------------------3------------------------3------------------------3------------------|
G|-5-5-5-5-3-5-5--5-5-3h5---5-5-5-5-3-5-5--5-5-3h5---5-5-5-5-3-5-5--5-5-3h5---5-5-3h5--3h5-----|
C|---------------------------------------------------------------------------------------------|

D|------------------------------------------|
A|------------------------------------------|
F|------------------------------------------| x4
C|--0--0-----0--0--------3------------------|
G|--0--0--3--0--0---3h5---------------------|
C|--0--0-----0--0---------------------------|

D|------------------------------------------|
A|------------------------------------------|
F|------------------------------------------| x2
C|-33333/55555--0-0-1-000--0-0-1-000--------|
G|-11111/33333--0-0-1-000--0-0-1-000--------|
C|--------------0-0-1-000--0-0-1-000--------|

  (2:24-3:22)
D|-----------------------------------------------------------------------------------------------------|
A|-----------------------------------------------------------------------------------------------------|
F|--------------------------------------------------------------------5h7-------5h7-------5h7------5h7-|
C|------------------3---0------------------------------------------5h7----7--5h7----7--5h7---7--5h7----|
G|------3-------3h5-----0---------3/5--5-5p3--5-5--3/5--5-5p3--5-5-------------------------------------|
C|-0000---00000---------0--0---0-----------------------------------------------------------------------|

D|-10~~~~~-----------10~~~~~~--------------------------------------------------------------------------|
A|---------10~~~~~~-----------10~~~~~~-----------------------------------------------------------------|
F|-----------------------------------------------------------------------------------------------------|
C|-----------------------------------------------------3------------------3--------------3---77777777--|
G|------------------------------------------3------3h5---------3------3h5--------3----3h5----55555555--|
C|-------------------------------------0--0---0--0--------0--0---0--0-------0--0---0-------------------|
                                       |______________________palm muted__________________|


D|----------------------|              
A|----------------------|              
F|----------------------| x3 and then  
C|-33333/55555/7-7------|              
G|-11111/33333/5-5------|              
C|----------------------|             


D|----------------------|
A|----------------------|
F|----------------------|
C|-33333/55555/7---0----|
G|-11111/33333/5---0----|
C|-----------------0----|


************************************

| /   slide up
| \   slide down
| h   hammer-on
| p   pull-off
| ~   vibrato
| +   harmonic
| x   Mute note
| b   Bend
| pb  Pre-bend
| br  Bend release
| pbr Pre-bend release
| brb Bend release bend

************************************
Добавлено: 12.03.2016
Другие материалы по этой песне:
  • Аккорды и текст

Страница создана 12.03.2016
http://primanota.ru/slo-burn/wheel-fall-chords.htm
Привет, Гость.
Предлагаем пройти революционный курс по гитаре.
Подарок от PrimaNota.Ru, забирай!